Cifra Club

Doidaça

Gusttavo Lima

Cifra: Principal
exibições 177.612
Tom: D (com acordes na forma de C) Capotraste na 2ª casa
Intro: C G Dm F


E|--------------------------------------------------|
B|--6-6-4---4---4-4---4h6-6-4---------4-6h7-7-6-4---|
G|--------6---------6---------6-6-3-6-------------6-|
D|--------------------------------------------------|
A|--------------------------------------------------|
E|--------------------------------------------------|

(C G Dm F)


E|------------------------------------------------|
B|--6-6-4---4---4-4---4h6-6-4---------4h6-6-9-9---|
G|--------6---------6---------6-6-3-6-------------|
D|------------------------------------------------|
A|------------------------------------------------|
E|------------------------------------------------|

C                             G
Tava me provocando a noite inteira,
   F
Falando em meu ouvido um monte de besteira
    C                         G
Tá colocando a mão por baixo da cadeira
   F
Tá se insinuando e eu gostando dessa brincadeira

Pré-Refrão:
C
Chega chegando, parte pra cima
G
Pega pegando, entra no clima
Dm        F
Faz, faz, faz
C
Chega chegando, parte pra cima
G
Pega pegando, entra no clima
Dm        G
Faz, faz, mais

Refrão:
C
  Pirou mulher?
G
  tá doida é?
Am
Vem que vem com tudo
            F
Que eu vou dar o que você quer
C
Pirou mulher?
G
Tá doidaça?
Dm                               F
Vem que vem com tudo que hoje a gente se arregaça

   C G Dm F
E|--------------------------------------------------|
B|--6-6-4---4---4-4---4h6-6-4---------4-6h7-7-6-4---|
G|--------6---------6---------6-6-3-6-------------6-|
D|--------------------------------------------------|
A|--------------------------------------------------|
E|--------------------------------------------------|

    C G Dm F
E|------------------------------------------------|
B|--6-6-4---4---4-4---4h6-6-4---------4h6-6-9-9---|
G|--------6---------6---------6-6-3-6-------------|
D|------------------------------------------------|
A|------------------------------------------------|
E|------------------------------------------------|
Acordes para:
    Colaboração e revisão:

    0 comentários

      mostrar mais comentários

      Conseguiu tocar?

      29tocaram0ainda não

      Grave um vídeo tocando Doidaça e mande pra gente!

      00:00 / 00:00
      outros vídeos desta música
      repetirqualidadeautomática
      Outro vídeos desta música
        00:00 / 00:00
        automática
        OK