Cifra Club

Ficha Limpa

Gusttavo Lima

Cifra: Principal (violão e guitarra)
tom: A
[Intro] D  E

[Primeira Parte] 

[Tab - Primeira Parte]

   A           A/C#   D
E|--------------------2---2---2---2---------|
B|-2---2---2---2------3---3---3---3---------|
G|-2---2---2---2------2-2---2---2---2-------|
D|-2-2---2---2---2----0---------------------|
A|-0-----------4----------------------------|
E|------------------------------------------|

A
  Quando você me toca 
       A/C#    D
Não arrepia a pele
A
  Suas palavras não me cortam
 A/C#   D
Mas me ferem

[Pré-Refrão] 

Bm                        D
Eu não tô feliz, você também
                       F#m
A gente tá enganando quem?
                    E
Tá tudo fora do normal
                              D
No momento, a gente pode ser tudo
                        Dm
Tudo, tudo, menos um casal

[Refrão] 

 D                       E
Doa a quem doer, no caso eu
                                F#m
Tô indo embora com minha ficha limpa
                          D
De saudade, de cabeça erguida
                               Bm
Eu vou sofrer, mas não vou recair
                             D
Mas já você vai precisar de mim

 D                       E
Doa a quem doer, no caso eu
                                F#m
Tô indo embora com minha ficha limpa
                          D
De saudade, de cabeça erguida
                               Bm
Eu vou sofrer, mas não vou recair
                             D
Mas já você vai precisar de mim
                 Dm         
Pra te tirar do fundo desse poço
    F#m
Que eu saí

[Solo] D  E  F#m  E/G#  A  A/C#

[Tab - Solo]

Parte 1 de 2
E|------------------------------------------|
B|-/7--5-7-5-7--5-7-5-7-5-7-5--7/9--7-9-7-9-|
G|------------------------------------------|
D|-/7--6-7-6-7--6-7-6-7-6-7-6--7/9--7-9-7-9-|
A|------------------------------------------|
E|------------------------------------------|

Parte 2 de 2
E|------------------------------------------|
B|-7-9-7--10-9-7-5-7---9---10---12/14---12--|
G|------------------------------------------|
D|-7-9-7--11-9-7-6-7---9---11---12/14---12--|
A|------------------------------------------|
E|------------------------------------------|

[Pré-Refrão] 

Bm                        D
Eu não tô feliz, você também
                       F#m
A gente tá enganando quem?
                    E
Tá tudo fora do normal
                              D
No momento, a gente pode ser tudo
                        Dm
Tudo, tudo, menos um casal

[Refrão] 

 D                       E
Doa a quem doer, no caso eu
                                F#m
Tô indo embora com minha ficha limpa
                          D
De saudade, de cabeça erguida
                               Bm
Eu vou sofrer, mas não vou recair
                             D
Mas já você vai precisar de mim

 D                       E
Doa a quem doer, no caso eu
                                F#m
Tô indo embora com minha ficha limpa
                          D
De saudade, de cabeça erguida
                               Bm
Eu vou sofrer, mas não vou recair
                             D
Mas já você vai precisar de mim
                 Dm         
Pra te tirar do fundo desse poço
    F#m 
Que eu saí

A                             Bm
Eu vou sofrer, mas não vou recair
                             D
Mas já você vai precisar de mim
                 Dm
Pra te tirar do fundo desse poço

[Final]

[Tab - Frase Final]

E|------------------------------------------|
B|------------------------------------------|
G|-2--1-------------------------------------|
D|-------4--2-----------2-------------------|
A|-------------4--2--4----------------------|
E|------------------------------------------|

         A/C#
Que eu saí
00:00 / 00:00
Outros vídeos desta música
Repetir
Outros vídeos desta música
Composição de Felipe Marins / Edson Garcia / Marcia Araújo / Nicolas Damasceno
Colaboração e revisão:
1.586.711 exibições
  • Simplificar cifra
    • ½ Tom
    • A
    • Bb
    • B
    • C
    • Db
    • D
    • Eb
    • E
    • F
    • F#
    • G
    • Ab
  • Adicionar à lista

    0 comentários

    Ver todos os comentários

    Entre para oCifra Club PRO

    Tenha acesso a benefícios exclusivos no App e no Site

    • Chega de anúncios

    • Prioridade de compra em lançamentos

    • Mais recursos no app do Afinador

    • Atendimento Prioritário

    • Descontos nos produtos Cifra Club

    • Ajude a produzir mais conteúdo

    00:00 / 00:00
    Capítulos
    • Tocando a Música
    • Acordes da Introdução - Primeira Parte
    • Tocando Introdução - Primeira Parte
    • Ensinando Dedilhado Primeira Parte
    • Acordes Pré-Refrão
    • Tocando Pré-Refrão
    • Ritmo Pré-Refrão
    • Tocando Refrão
    • Ritmo Refrão
    • Acordes Solo
    • Tocando Base do Solo
    • Ritmo Base do Solo
    • Tocando Solo
    • Ensinando Solo
    • Tocando Final
    • Ensinando Final
    • Encerramento

    Cifra Club Pro

    Aproveite o Cifra Club com benefícios exclusivos e sem anúncios
    Cifra Club Pro
    Aproveite o Cifra Club com benefícios exclusivos e sem anúncios
    OK