Cifra Club

Aprenda

De Longe

Haikaiss

Cifra: Solo (violão e guitarra)
Quer fazer aulas de música com a gente? Responda essas perguntas
e nos ajude nesse projeto! →
tom: A
E|-------------------------------------------|
B|-------------------------------------------|
G|-----6-8-6-8-8/10----6---6---6h8--6~~------|
D|-6/8-------------------8---8---------------|
A|-------------------------------------------|
E|-------------------------------------------|

E|-------------------------------------------|
B|-------------------------------------------|
G|-6----6-8-8/10-----6--6----6h8-6/8~~-------|
D|---8-----------------8---8-----------------|
A|-------------------------------------------|
E|-------------------------------------------|

E|-------------------------------------------------|
B|---------9----------------------9----------------|
G|6-8-8/10---10/8p6--8-6-----8/10---10/8p6--8-6----|
D|-----------------------8-6--------------------8--|
A|-------------------------------------------------|
E|-------------------------------------------------|

E|-11b13r11-9---------11-9~~---------|
B|------------11-9-------------------|
G|-----------------10----------------|
D|-----------------------------------|
A|-----------------------------------|
E|-----------------------------------|

E|-9-----9---------------------------------|
B|-9h11--9---9-----9--7----7---------------|
G|-10----10--8h10--8--6h8--6--6----6-------|
D|----------------------------6h8--6-------|
A|-----------------------------------------|
E|-----------------------------------------|

E|---------------------------------------------------------|
B|-------------------------------------9-------------------|
G|--------------------------6-8-6-8/10---10/8p6--8-6-8-6~~-|
D|----------------------6-8--------------------------------|
A|--4-6~~-4--4-6-4--6/8------------------------------------|
E|---------------------------------------------------------|
Composição de Pedro Qualy / Spinardi / SPVIC
Colaboração e revisão:
  • kirller
  • Murilo Guarnieri
8.042 exibições
    • ½ Tom
    • A
    • Bb
    • B
    • C
    • Db
    • D
    • Eb
    • E
    • F
    • F#
    • G
    • Ab
  • Adicionar à lista

    0 comentários

    Ver todos os comentários

    Conseguiu tocar?

    0 Tocaram 6 Ainda não

    Grave um vídeo tocando De Longe e nos envie!

    00:00 / 00:00
    Outros vídeos desta música
    Repetir Qualidade Automático
    Outros vídeos desta música
    00:00 / 00:00
    Automático

    Cifra Club Pro

    Aproveite o Cifra Club com benefícios exclusivos e sem anúncios
    Cifra Club Pro
    Aproveite o Cifra Club com benefícios exclusivos e sem anúncios
    OK