Cifra Club

Aprenda

Black Vultures

Halestorm

Cifra: Principal (violão e guitarra)
tom: Bb
Afinação: D A D G B E

[Intro]

Guitarra 1

E|---------------------------------------|
B|---------------------------------------|
G|---------------------------------------|
D|---------------------------------------|
A|--3-5-5brv-----3-5-5brv-----3-5-5brv---|
D|--3-5-5brv-----3-5-5brv-----3-5-5brv---|

E|---------------------------------------|
B|---------------------------------------|
G|---------------------------------------|
D|---------------------------------------|
A|--3-5-5brv-----6---------3-------------|
D|--3-5-5brv-----6---------3-------------|

E|---------------------------------------|
B|---------------------------------------|
G|---------------------------------------|
D|---------------------------------------|
A|--3-5-5brv-----3-5-5brv-----3-5-5brv---|
D|--3-5-5brv-----3-5-5brv-----3-5-5brv---|

E|---------------------------------------|
B|---------------------------------------|
G|---------------------------------------|
D|---------------------------------------|
A|--3-5-5brv-----6----6----3----3--------|
D|--3-5-5brv-----6----6----3----3--------|

Guitarra 2

E|--/15----------------------------------|
B|---------------16br--------------------|
G|--/12----------20br--------------------|
D|---------------------------------------|
A|---------------------------------------|
D|---------------------------------------|

E|----------------20--------16-----------|
B|--14br---------------------------------|
G|--18br----------17--------13-----------|
D|---------------------------------------|
A|---------------------------------------|
D|---------------------------------------|

E|--/15----------------------------------|
B|---------------16br--------------------|
G|--/12----------20br--------------------|
D|---------------------------------------|
A|---------------------------------------|
D|---------------------------------------|

E|----------------20---20---16---16------|
B|--14br---------------------------------|
G|--18br----------17---17---13---13------|
D|---------------------------------------|
A|---------------------------------------|
D|---------------------------------------|

[Verso]

Clean guitar
E|---------------------------------------|
B|-----3--------4--------1---------------|
G|---0--------0--------0-----------------|  (4x)
D|-0--------0--------0-------------------|
A|---------------------------------------|
D|---------------------------------------|

E|---------------------------------------|
B|---------------------------------------|
G|---0--------0--------0-----------------|
D|-0--------0--------0---------1-0-------|
A|---------------------------------------|
D|---------------------------------------|

[Refrão]

Guitarra 1

E|---------------------------------|
B|---------------------------------|
G|---------------------------------|
D|---------------------------------|
A|-5-5-5-5-5-5-5-5-3-3-3-3-3-3-3-3-|
D|-5-5-5-5-5-5-5-5-3-3-3-3-3-3-3-3-|

E|---------------------------------|
B|---------------------------------|
G|---------------------------------|  (2x)
D|---------------------------------|
A|-1-1-1-1-1-1-1-1-0-0-0-0-0-0-0-0-|
D|-1-1-1-1-1-1-1-1-0-0-0-0-0-0-0-0-|

Guitarra 2

E|-------------------------------------------------|
B|-------------------------------------------------|
G|-------------------------------------------------|
D|-12-12-12-12-12-12-12-12-12-12-12-12-12-12-12-12-|
A|-------------------------------------------------|
D|-10-10-10-10-10-10-10-10-10-10-10-10-10-10-10-10-|

E|-------------------------------------------------|
B|-------------------------------------------------|
G|-------------------------------------------------|  (2x)
D|-12-12-12-12-12-12-12-12-10-10-10-10-10-10-10-10-|
A|-------------------------------------------------|
D|-10-10-10-10-10-10-10-10--8--8--8--8--8--8--8--8-|

E|--------------------------------|
B|--------------------------------|
G|--------------------------------|
D|--------------------------------|
A|-1-------------3----------------|
D|-1-------------3----------------|

E|--------------------------------|
B|--------------------------------|
G|--------------------------------|
D|--------------------------------|
A|-5-5-5---------5-5----5-5----5\-|
D|-5-5-5---------5-5----5-5----5\-|

E|--------------------------------|
B|--------------------------------|
G|--------------------------------|
D|--------------------------------|
A|-1-------------3----------------|
D|-1-------------3----------------|

E|--------------------------------|
B|--------------------------------|
G|--------------------------------|
D|------------------5-5-5-5-3-3-3-|
A|-5-5-5----------0-3-3-3-3-1-1-1-|
D|-5-5-5----------0---------------|

[Interlúdio]

E|---------------------------------------|
B|---------------------------------------|
G|---------------------------------------|
D|---------------------------------------|
A|--3-5-5brv-----3-5-5brv-----3-5-5brv---|
D|--3-5-5brv-----3-5-5brv-----3-5-5brv---|

E|---------------------------------------|
B|---------------------------------------|
G|---------------------------------------|
D|---------------------------------------|
A|--3-5-5brv-----6---------3-------------|
D|--3-5-5brv-----6---------3-------------|

E|---------------------------------------|
B|---------------------------------------|
G|---------------------------------------|
D|---------------------------------------|
A|--3-5-5brv-----3-5-5brv-----3-5-5brv---|
D|--3-5-5brv-----3-5-5brv-----3-5-5brv---|

E|---------------------------------------|
B|---------------------------------------|
G|---------------------------------------|
D|---------------------------------------|
A|--3-5-5brv-----6----6----3----3--------|
D|--3-5-5brv-----6----6----3----3--------|

Guitarra 2

E|--/15----------------------------------|
B|---------------16br--------------------|
G|--/12----------20br--------------------|
D|---------------------------------------|
A|---------------------------------------|
D|---------------------------------------|

E|----------------20--------16-----------|
B|--14br---------------------------------|
G|--18br----------17--------13-----------|
D|---------------------------------------|
A|---------------------------------------|
D|---------------------------------------|

E|--/15----------------------------------|
B|---------------16br--------------------|
G|--/12----------20br--------------------|
D|---------------------------------------|
A|---------------------------------------|
D|---------------------------------------|

E|----------------20---20---16---16------|
B|--14br---------------------------------|
G|--18br----------17---17---13---13------|
D|---------------------------------------|
A|---------------------------------------|
D|---------------------------------------|

[Verso]

Clean guitar
E|---------------------------------------|
B|-----3--------4--------1---------------|
G|---0--------0--------0-----------------|  (4x)
D|-0--------0--------0-------------------|
A|---------------------------------------|
D|---------------------------------------|

E|---------------------------------------|
B|---------------------------------------|
G|---0--------0--------0-----------------|
D|-0--------0--------0---------1-0-------|
A|---------------------------------------|
D|---------------------------------------|

[Refrão]

Guitarra 1

E|---------------------------------|
B|---------------------------------|
G|---------------------------------|
D|---------------------------------|
A|-5-5-5-5-5-5-5-5-3-3-3-3-3-3-3-3-|
D|-5-5-5-5-5-5-5-5-3-3-3-3-3-3-3-3-|

E|---------------------------------|
B|---------------------------------|
G|---------------------------------|  (2x)
D|---------------------------------|
A|-1-1-1-1-1-1-1-1-0-0-0-0-0-0-0-0-|
D|-1-1-1-1-1-1-1-1-0-0-0-0-0-0-0-0-|

Guitarra 2

E|-------------------------------------------------|
B|-------------------------------------------------|
G|-------------------------------------------------|
D|-12-12-12-12-12-12-12-12-12-12-12-12-12-12-12-12-|
A|-------------------------------------------------|
D|-10-10-10-10-10-10-10-10-10-10-10-10-10-10-10-10-|

E|-------------------------------------------------|
B|-------------------------------------------------|
G|-------------------------------------------------|  (2x)
D|-12-12-12-12-12-12-12-12-10-10-10-10-10-10-10-10-|
A|-------------------------------------------------|
D|-10-10-10-10-10-10-10-10--8--8--8--8--8--8--8--8-|

E|--------------------------------|
B|--------------------------------|
G|--------------------------------|
D|--------------------------------|
A|-1-------------3----------------|
D|-1-------------3----------------|

E|--------------------------------|
B|--------------------------------|
G|--------------------------------|
D|--------------------------------|
A|-5-5-5---------5-5----5-5----5\-|
D|-5-5-5---------5-5----5-5----5\-|

E|--------------------------------|
B|--------------------------------|
G|--------------------------------|
D|--------------------------------|
A|-1-------------3----------------|
D|-1-------------3----------------|

E|--------------------------------|
B|--------------------------------|
G|--------------------------------|
D|------------------5-5-5-5-3-3-3-|
A|-5-5-5----------0-3-3-3-3-1-1-1-|
D|-5-5-5----------0---------------|

[Ponte]

E|---------------------------------------|
B|---------------------------------------|
G|---------------------------------------|
D|---------------------------------------|
A|--1-1-1-1------1-1-1-1------1-1-1-1----|
D|--1-1-1-1------1-1-1-1------1-1-1-1----|

E|---------------------------------------|
B|---------------------------------------|
G|---------------------------------------|  (4x)
D|---------------------------------------|
A|--1-1-1-1------6----6----3----3--------|
D|--1-1-1-1------6----6----3----3--------|

E|-------------------------|
B|-------------------------|
G|-------------------------|
D|-------------------------|
A|-------------------------|
D|-0-0----0----0-0----0----|

[Interlúdio]

Guitarra 1

E|---------------------------|
B|---------------------------|
G|---------------------------|
D|---------------------------|
A|---------------------------|
D|-5------------3------------|

E|---------------------------|
B|---------------------------|
G|---------------------------|
D|---------------------------|
A|---------------------------|
D|-1------------0------------|

E|---------------------------|
B|---------------------------|
G|---------------------------|
D|---------------------------|
A|---------------------------|
D|-5------------3------------|

E|---------------------------|
B|---------------------------|
G|---------------------------|
D|---------------------------|
A|---------------------------|
D|-1-------------------------|

Guitarra 2

E|-15----15----17----17------|
B|----15----15----15----15---|
G|---------------------------|
D|---------------------------|
A|---------------------------|
D|---------------------------|

E|-18----18----20-18-17------|
B|----15----15----------15---|
G|---------------------------|
D|---------------------------|
A|---------------------------|
D|---------------------------|

E|-15----15----17----17------|
B|----15----15----15----15---|
G|---------------------------|
D|---------------------------|
A|---------------------------|
D|---------------------------|

E|-18----18----20------------|
B|----15----15---------------|
G|---------------------------|
D|---------------------------|
A|---------------------------|
D|---------------------------|

[Refrão]

E|---------------------------------|
B|---------------------------------|
G|---------------------------------|
D|---------------------------------|
A|-1-------------3-----------------|
D|-1-------------3-----------------|

E|---------------------------------|
B|---------------------------------|
G|---------------------------------|
D|---------------------------------|
A|-5-5-5---------5-5----5-5----5\--|
D|-5-5-5---------5-5----5-5----5\--|

E|---------------------------------|
B|---------------------------------|
G|---------------------------------|
D|---------------------------------|
A|-1-------------3-----------------|
D|-1-------------3-----------------|

E|---------------------------------|
B|---------------------------------|
G|---------------------------------|
D|---------------------------------|
A|-5-5-5---------5---3---5---1-----|
D|-5-5-5---------5---3---5---1-----|

E|---------------------------------|
B|---------------------------------|
G|---------------------------------|
D|---------------------------------|
A|-1-1-1-1-1-1-1-1-3-3-3-3-3-3-3-3-|
D|-1-1-1-1-1-1-1-1-3-3-3-3-3-3-3-3-|

E|---------------------------------|
B|---------------------------------|
G|---------------------------------|  (4x)
D|---------------------------------|
A|-5-5-5-5-5-5-5-5-5-5-5-5-5-5-5-5-|
D|-5-5-5-5-5-5-5-5-5-5-5-5-5-5-5-5-|

[Final]

Guitarra 1

E|---------------------------------------|
B|---------------------------------------|
G|---------------------------------------|
D|---------------------------------------|
A|--3-5-5brv-----3-5-5brv-----3-5-5brv---|
D|--3-5-5brv-----3-5-5brv-----3-5-5brv---|

E|---------------------------------------|
B|---------------------------------------|
G|---------------------------------------|  (2x)
D|---------------------------------------|
A|--3-5-5brv------6---------3------------|
D|--3-5-5brv------6---------3------------|

Guitarra 2

E|--/15----------------------------------|
B|---------------16br--------------------|
G|--/12----------20br--------------------|
D|---------------------------------------|
A|---------------------------------------|
D|---------------------------------------|

E|----------------20--------16-----------|
B|--14br---------------------------------|
G|--18br----------17--------13-----------|
D|---------------------------------------|
A|---------------------------------------|
D|---------------------------------------|
Compositor não encontrado.
Colaboração e revisão:
  • Lucas Kappaun
134 exibições
    • ½ Tom
    • A
    • Bb
    • B
    • C
    • Db
    • D
    • Eb
    • E
    • F
    • F#
    • G
    • Ab
  • Adicionar à lista

    0 comentários

    Ver todos os comentários
    00:00 / 00:00
    Outros vídeos desta música
    Repetir Qualidade Automático
    Outros vídeos desta música
    00:00 / 00:00
    Automático

    Cifra Club Pro

    Aproveite o Cifra Club com benefícios exclusivos e sem anúncios
    Cifra Club Pro
    Aproveite o Cifra Club com benefícios exclusivos e sem anúncios
    OK