Cifra Club

Aprenda

Dirty Work

Halestorm

Cifra: Principal (violão e guitarra)
tom: Bb
GTR I e GTR II - Drop Db Tuning "Lzzy Hale" (eb,Bb,Gb,Db,Ab,Db)

Introdução

   GTR I,II
E|-------------------------------------------------|
B|-------------------------------------------------|
G|-------------------------------------------------|
D|--5-----5-----0--3-----0--5-----5-----0--3-----0-|
A|--5-----5-----0--3-----0--5-----5-----0--3-----0-|
D|--5-----5-----0--3-----0--5-----5-----0--3-----0-|

   GTR I
E|-------------------------------------------------|
B|-------------------------------------------------|
G|-------------------------------------------(5)---|
D|--5-----5-----0--3-----0--6--6--6--6--6-(5)------|
A|--5-----5-----0--3-----0--6--6--6--6--6----------|
D|--5-----5-----0--3-----0--6--6--6--6--6----------|
  |
  |GTR II
E|-------------------------------------------------|
B|-------------------------------------------------|
G|-------------------------------------------------|
D|--5-----5-----0--3-----0--6--6--6--6--6----(5)---|
A|--5-----5-----0--3-----0--6--6--6--6--6-(5)------|
D|--5-----5-----0--3-----0--6--6--6--6--6----------|

   GTR I,II
E|-------------------------------------------------|
B|-------------------------------------------------|
G|-------------------------------------------------|
D|--5-----5-----0--3-----0--5-----5-----0--3-----0-|
A|--5-----5-----0--3-----0--5-----5-----0--3-----0-|
D|--5-----5-----0--3-----0--5-----5-----0--3-----0-|

   GTR I,II
E|-------------------------------------------------|
B|-------------------------------------------------|
G|-------------------------------------------------|
D|--5-----5-----0--3-----0--6--6--6--6--6-(5)(5)(5)|
A|--5-----5-----0--3-----0--6--6--6--6--6-(5)(5)(5)|
D|--5-----5-----0--3-----0--6--6--6--6--6-(5)(5)(5)|

   GTR I,II
E|-------------------------------------------------|
B|-------------------------------------------------|
G|-------------------------------------------------|
D|--5-----5-----0--3-----0--5-----5-----0--3-----0-|
A|--5-----5-----0--3-----0--5-----5-----0--3-----0-|
D|--5-----5-----0--3-----0--5-----5-----0--3-----0-|

   GTR I,II
E|-------------------------------------------------|
B|-------------------------------------------------|
G|-------------------------------------------------|
D|--5-----5-----0--3-----0--6--6--6--6--6----------|
A|--5-----5-----0--3-----0--6--6--6--6--6----------|
D|--5-----5-----0--3-----0--6--6--6--6--6----------|

Verso

   GTR I
E|-------------------------------------------------|
B|-------------------------------------------------|
G|-------------------------------------------------|
D|-------------------------------------------------|
A|--5-----5-----3-----3-----5-----5-----3-----3----|
D|--5-----5-----3-----3-----5-----5-----3-----3----|
     .     .     .     .     .     .     .     .

   GTR I
E|-------------------------------------------------|
B|-------------------------------------------------|
G|-------------------------------------------------|
D|-------------------------------------------------|
A|--5-----5-----3-----3-----5-----5-----3-----3----|
D|--5-----5-----3-----3-----5-----5-----3-----3----|
     .     .     .     .     .     .     .     .

   GTR I
E|-------------------------------------------------|
B|-------------11----------------------10----------|
G|-------12----------12----------11----------11----|
D|-12----------------------12----------------------|
A|-------------------------------------------------|
D|-------------------------------------------------|

   GTR I
E|-------------------------------------------------|
B|-------------11----------------------10----------|
G|-------12----------12----------11----------11----|
D|-12----------------------12----------------------|
A|-------------------------------------------------|
D|-------------------------------------------------|

   GTR I
E|-------------------------------------------------|
B|-------------------------------------------------|
G|-------------------------------------------------|
D|-------------------------------------------------|
A|--5-----5-----3-----3-----5-----5-----3-----3----|
D|--5-----5-----3-----3-----5-----5-----3-----3----|
     .     .     .     .     .     .     .     .

   GTR I
E|-------------------------------------------------|
B|-------------------------------------------------|
G|-------------------------------------------------|
D|-------------------------------------------------|
A|--5-----5-----3-----3-----5-----5-----3-----3----|
D|--5-----5-----3-----3-----5-----5-----3-----3----|
     .     .     .     .     .     .     .     .

   GTR I
E|-------------------------------------------------|
B|-------------11----------------------10----------|
G|-------12----------12----------11----------11----|
D|-12----------------------12----------------------|
A|-------------------------------------------------|
D|-------------------------------------------------|

   GTR I
E|-------------------------------------------------|
B|-------------11----------------------10----------|
G|-------12----------12----------11----------11----|
D|-12----------------------12----------------------|
A|-------------------------------------------------|
D|-------------------------------------------------|

   GTR I
E|-------------------------------------------------|
B|-------------------------------------------------|
G|-------------------------------------------------|
D|-------------------------------------------------|
A|--5-----5-----3-----3-----5-----5-----3-----3----|
D|--5-----5-----3-----3-----5-----5-----3-----3----|
  |  .     .     .     .     .     .     .     .
  |GTR II
E|-------------------------------------------------|
B|-------------------------------------------------|
G|-------------------------------------------------|
D|-12----------10-----------------8-----7----------|
A|-------------------------------------------------|
D|-------------------------------------------------|

   GTR I
E|-------------------------------------------------|
B|-------------------------------------------------|
G|-------------------------------------------------|
D|-------------------------------------------------|
A|--5-----5-----3-----3-----5-----5-----3-----3----|
D|--5-----5-----3-----3-----5-----5-----3-----3----|
  |  .     .     .     .     .     .     .     .
  |GTR II
E|-------------------------------------------------|
B|-------------------------------------------------|
G|-------------------------------------------------|
D|-------------------------------------------------|
A|-------10-----8-----------------6-----5----------|
D|-------------------------------------------------|

   GTR I
E|-------------------------------------------------|
B|-------------11----------------------11----------|
G|-------12----------12----------12----------12----|
D|-12----------------------12----------------------|
A|-------------------------------------------------|
D|-------------------------------------------------|

   GTR I
E|-------------------------------------------------|
B|-------------10----------------------10----------|
G|-------11----------11----------11----------11----|
D|-12----------------------12----------------------|
A|-------------------------------------------------|
D|-------------------------------------------------|

Pre Refrão

   GTR I,II
E|-------------------------------------------------|
B|-------------------------------------------------|
G|--8-----8-----8-----8-----8-----8-----8-----8----|
D|--8-----8-----8-----8-----8-----8-----8-----8----|
A|--6-----6-----6-----6-----6-----6-----6-----6----|
D|-------------------------------------------------|

   GTR I,II
E|-------------------------------------------------|
B|-------------------------------------------------|
G|-------------------------------------------------|
D|--5-----------5-----7-----8-----7-----5-----3----|
A|--5-----------5-----7-----8-----7-----5-----3----|
D|--5-----------5-----7-----8-----7-----5-----3----|

   GTR I,II
E|-------------------------------------------------|
B|-------------------------------------------------|
G|--8-----8-----8-----8-----8-----8-----8-----8----|
D|--8-----8-----8-----8-----8-----8-----8-----8----|
A|--6-----6-----6-----6-----6-----6-----6-----6----|
D|-------------------------------------------------|

   GTR I,II
E|-------------------------------------------------|
B|-------------------------------------------------|
G|--------------------------------------------7----|
D|--5-----------5-----7-----8-----7-----5-----7----|
A|--5-----------5-----7-----8-----7-----5-----5----|
D|--5-----------5-----7-----8-----7-----5----------|

   GTR I,II
E|-------------------------------------------------|
B|-------------------------------------------------|
G|--5-----5-----5-----5-----7--7--7--7--7--7--7--7-|
D|--5-----5-----5-----5-----7--7--7--7--7--7--7--7-|
A|--3-----3-----3-----3-----5--5--5--5--5--5--5--5-|
D|-------------------------------------------------|

Refrão

   GTR I,II
E|-------------------------------------------------|
B|-------------------------------------------------|
G|-------------------------------------------------|
D|--5-----5--------5--------7-----7--------7-------|
A|--5-----5-----0--5-----0--7-----7-----0--7-----0-|
D|--5-----5-----0--5-----0--7-----7-----0--7-----0-|
                 .        .              .        .
   GTR I
E|-------------------------------------------------|
B|-------------------------------------------------|
G|-------------------------------------------------|
D|--8-----8--------8-------10-10-10-10-12-12-12-12-|
A|--8-----8-----0--8-----0-10-10-10-10-12-12-12-12-|
D|--8-----8-----0--8-----0-10-10-10-10-12-12-12-12-|
  |              .        .
  |GTR II
E|-------------------------------------------------|
B|-------------------------------------------------|
G|-------------------------------------------------|
D|-------------------------------------------10-10-|
A|-------------------------------------------------|
D|-------------------------------------------------|

   GTR I
E|-------------------------------------------------|
B|-------------------------------------------------|
G|-------------------------------------------------|
D|--5-----5--------5--------7-----7--------7-------|
A|--5-----5-----0--5-----0--7-----7-----0--7-----0-|
D|--5-----5-----0--5-----0--7-----7-----0--7-----0-|
  |              .        .              .        .
  |GTR II
E|-------------------------------------------------|
B|-------------------------------------------------|
G|----------------------------------------15----14-|
D|-10h12----------------------14----15-------------|
A|-------13----10~---------------------------------|
D|-------------------------------------------------|

   GTR I
E|-------------------------------------------------|
B|-------------------------------------------------|
G|-------------------------------------------------|
D|--8-----8--------8-------13----------12----------|
A|--8-----8-----0--8-----0-13----------12----------|
D|--8-----8-----0--8-----0-13----------12----------|
  |              .        .
  |GTR II
E|-------------------------------------------------|
B|-------------------------------------------------|
G|------------------------/20~---------------------|
D|-------------------------------------------------|
A|-------------------------------------------------|
D|-------------------------------------------------|

   GTR I,II
E|-------------------------------------------------|
B|-------------------------------------------------|
G|-------------------------------------------------|
D|--5-----5--------5--------7-----7--------7-------|
A|--5-----5-----0--5-----0--7-----7-----0--7-----0-|
D|--5-----5-----0--5-----0--7-----7-----0--7-----0-|
                 .        .              .        .

   GTR I,II
E|-------------------------------------------------|
B|-------------------------------------------------|
G|-------------------------------------------------|
D|--8-----8--------8-------10-10-10-10-10-10-10-10-|
A|--8-----8-----0--8-----0-10-10-10-10-10-10-10-10-|
D|--8-----8-----0--8-----0-10-10-10-10-10-10-10-10-|
                 .        .

   GTR I,II
E|-------------------------------------------------|
B|-------------------------------------------------|
G|--7-----7-----7-----7-----7-----7-----7-----7----|
D|--7-----7-----7-----7-----7-----7-----7-----7----|
A|--5-----5-----5-----5-----5-----5-----5-----5----|
D|-------------------------------------------------|

   GTR I
E|-------------------------------------------------|
B|-------------------------------------------------|
G|--7-----7-----7-----7-----7-----7-----7-----7----|
D|--7-----7-----7-----7-----7-----7-----7-----7----|
A|--5-----5-----5-----5-----5-----5-----5-----5----|
D|-------------------------------------------------|
  |
  |GTR II
E|-------------------------------------15----15----|
B|-------------------------------------18b---18b---|
G|-------------------------------------------------|
D|-------------------------------------------------|
A|-------------------------------------------------|
D|-------------------------------------------------|

Pos Refrão

   GTR I,II
E|-------------------------------------------------|
B|-------------------------------------------------|
G|-------------------------------------------------|
D|--5-----5-----0--3-----0--5-----5-----0--3-----0-|
A|--5-----5-----0--3-----0--5-----5-----0--3-----0-|
D|--5-----5-----0--3-----0--5-----5-----0--3-----0-|

   GTR I,II
E|-------------------------------------------------|
B|-------------------------------------------------|
G|-------------------------------------------------|
D|--5-----5-----0--3-----0--6--6--6--6--6----------|
A|--5-----5-----0--3-----0--6--6--6--6--6----------|
D|--5-----5-----0--3-----0--6--6--6--6--6----------|

Verso 2

   GTR I
E|-------------------------------------------------|
B|-------------------------------------------------|
G|-------------------------------------------------|
D|-------------------------------------------------|
A|--5-----5-----3-----3-----5-----5-----3-----3----|
D|--5-----5-----3-----3-----5-----5-----3-----3----|
  |  .     .     .     .     .     .     .     .
  |GTR II
E|-------------------------------------------------|
B|-------------------------------------------------|
G|-------------------------------------------------|
D|-12----------10-----------------8-----7----------|
A|-------------------------------------------------|
D|-------------------------------------------------|

   GTR I
E|-------------------------------------------------|
B|-------------------------------------------------|
G|-------------------------------------------------|
D|-------------------------------------------------|
A|--5-----5-----3-----3-----5-----5-----3-----3----|
D|--5-----5-----3-----3-----5-----5-----3-----3----|
  |  .     .     .     .     .     .     .     .
  |GTR II
E|-------------------------------------------------|
B|-------------------------------------------------|
G|-------------------------------------------------|
D|-------------------------------------------------|
A|-------10-----8-----------------6-----5----------|
D|-------------------------------------------------|

   GTR I
E|-------------------------------------------------|
B|-------------11----------------------10----------|
G|-------12----------12----------11----------11----|
D|-12----------------------12----------------------|
A|-------------------------------------------------|
D|-------------------------------------------------|
  |
  |GTR II
E|-------------------------------------------------|
B|-------------------------------------------------|
G|-12----------------------14----------------------|
D|--x-----------------------x----------------------|
A|-10----------------------12----------------------|
D|-------------------------------------------------|

   GTR I
E|-------------------------------------------------|
B|-------------11----------------------10----------|
G|-------12----------12----------11----------11----|
D|-12----------------------12----------------------|
A|-------------------------------------------------|
D|-------------------------------------------------|
  |
  |GTR II
E|-------------------------------------------------|
B|-------------------------------------------------|
G|-15----------------------14----------------------|
D|--x-----------------------x----------------------|
A|-13----------------------12----------------------|
D|-------------------------------------------------|

   GTR I
E|-------------------------------------------------|
B|-------------------------------------------------|
G|-------------------------------------------------|
D|-------------------------------------------------|
A|--5-----5-----3-----3-----5-----5-----3-----3----|
D|--5-----5-----3-----3-----5-----5-----3-----3----|
  |  .     .     .     .     .     .     .     .
  |GTR II
E|-------------------------------------------------|
B|-------------------------------------------------|
G|-------------------------------------------------|
D|-12----------10-----------------8-----7----------|
A|-------------------------------------------------|
D|-------------------------------------------------|

   GTR I
E|-------------------------------------------------|
B|-------------------------------------------------|
G|-------------------------------------------------|
D|-------------------------------------------------|
A|--5-----5-----3-----3-----5-----5-----3-----3----|
D|--5-----5-----3-----3-----5-----5-----3-----3----|
  |  .     .     .     .     .     .     .     .
  |GTR II
E|-------------------------------------------------|
B|-------------------------------------------------|
G|-------------------------------------------------|
D|-------------------------------------------------|
A|-------10-----8-----------------6-----5----------|
D|-------------------------------------------------|

   GTR I
E|-------------------------------------------------|
B|-------------11----------------------11----------|
G|-------12----------12----------12----------12----|
D|-12----------------------12----------------------|
A|-------------------------------------------------|
D|-------------------------------------------------|

   GTR I
E|-------------------------------------------------|
B|-------------10----------------------10----------|
G|-------11----------11----------11----------11----|
D|-12----------------------12----------------------|
A|-------------------------------------------------|
D|-------------------------------------------------|

Pre Refrão

   GTR I,II
E|-------------------------------------------------|
B|-------------------------------------------------|
G|--8-----8-----8-----8-----8-----8-----8-----8----|
D|--8-----8-----8-----8-----8-----8-----8-----8----|
A|--6-----6-----6-----6-----6-----6-----6-----6----|
D|-------------------------------------------------|

   GTR I,II
E|-------------------------------------------------|
B|-------------------------------------------------|
G|-------------------------------------------------|
D|--5-----------5-----7-----8-----7-----5-----3----|
A|--5-----------5-----7-----8-----7-----5-----3----|
D|--5-----------5-----7-----8-----7-----5-----3----|

   GTR I,II
E|-------------------------------------------------|
B|-------------------------------------------------|
G|--8-----8-----8-----8-----8-----8-----8-----8----|
D|--8-----8-----8-----8-----8-----8-----8-----8----|
A|--6-----6-----6-----6-----6-----6-----6-----6----|
D|-------------------------------------------------|

   GTR I,II
E|-------------------------------------------------|
B|-------------------------------------------------|
G|--------------------------------------------7----|
D|--5-----------5-----7-----8-----7-----5-----7----|
A|--5-----------5-----7-----8-----7-----5-----5----|
D|--5-----------5-----7-----8-----7-----5----------|

   GTR I,II
E|-------------------------------------------------|
B|-------------------------------------------------|
G|--5-----5-----5-----5-----7--7--7--7--7--7--7--7-|
D|--5-----5-----5-----5-----7--7--7--7--7--7--7--7-|
A|--3-----3-----3-----3-----5--5--5--5--5--5--5--5-|
D|-------------------------------------------------|

Refrão

   GTR I,II
E|-------------------------------------------------|
B|-------------------------------------------------|
G|-------------------------------------------------|
D|--5-----5--------5--------7-----7--------7-------|
A|--5-----5-----0--5-----0--7-----7-----0--7-----0-|
D|--5-----5-----0--5-----0--7-----7-----0--7-----0-|
                 .        .              .        .

   GTR I
E|-------------------------------------------------|
B|-------------------------------------------------|
G|-------------------------------------------------|
D|--8-----8--------8-------10-10-10-10-12-12-12-12-|
A|--8-----8-----0--8-----0-10-10-10-10-12-12-12-12-|
D|--8-----8-----0--8-----0-10-10-10-10-12-12-12-12-|
  |              .        .
  |GTR II
E|-------------------------------------------------|
B|-------------------------------------------------|
G|-------------------------------------------------|
D|-------------------------------------------10-10-|
A|-------------------------------------------------|
D|-------------------------------------------------|

   GTR I
E|-------------------------------------------------|
B|-------------------------------------------------|
G|-------------------------------------------------|
D|--5-----5--------5--------7-----7--------7-------|
A|--5-----5-----0--5-----0--7-----7-----0--7-----0-|
D|--5-----5-----0--5-----0--7-----7-----0--7-----0-|
  |              .        .              .        .
  |GTR II
E|-------------------------------------------------|
B|-------------------------------------------------|
G|----------------------------------------15----14-|
D|-10h12----------------------14----15-------------|
A|-------13----10~---------------------------------|
D|-------------------------------------------------|

   GTR I
E|-------------------------------------------------|
B|-------------------------------------------------|
G|-------------------------------------------------|
D|--8-----8--------8-------13----------12----------|
A|--8-----8-----0--8-----0-13----------12----------|
D|--8-----8-----0--8-----0-13----------12----------|
  |              .        .
  |GTR II
E|-------------------------------------------------|
B|-------------------------------------------------|
G|------------------------/20~---------------------|
D|-------------------------------------------------|
A|-------------------------------------------------|
D|-------------------------------------------------|

   GTR I,II
E|-------------------------------------------------|
B|-------------------------------------------------|
G|-------------------------------------------------|
D|--5-----5--------5--------7-----7--------7-------|
A|--5-----5-----0--5-----0--7-----7-----0--7-----0-|
D|--5-----5-----0--5-----0--7-----7-----0--7-----0-|
                 .        .              .        .

   GTR I,II
E|-------------------------------------------------|
B|-------------------------------------------------|
G|-------------------------------------------------|
D|--8-----8--------8-------10-10-10-10-10-10-10-10-|
A|--8-----8-----0--8-----0-10-10-10-10-10-10-10-10-|
D|--8-----8-----0--8-----0-10-10-10-10-10-10-10-10-|
                 .        .

   GTR I,II
E|-------------------------------------------------|
B|-------------------------------------------------|
G|--7-----7-----7-----7-----7-----7-----7-----7----|
D|--7-----7-----7-----7-----7-----7-----7-----7----|
A|--5-----5-----5-----5-----5-----5-----5-----5----|
D|-------------------------------------------------|

   GTR I
E|-------------------------------------------------|
B|-------------------------------------------------|
G|--7-----7-----7-----7-----7-----7-----7-----7----|
D|--7-----7-----7-----7-----7-----7-----7-----7----|
A|--5-----5-----5-----5-----5-----5-----5-----5----|
D|-------------------------------------------------|
  |
  |GTR II
E|-------------------------------------15----15----|
B|-------------------------------------18b---18b---|
G|-------------------------------------------------|
D|-------------------------------------------------|
A|-------------------------------------------------|
D|-------------------------------------------------|

Solo

   GTR I
E|-------------------------------------------------|
B|-------------------------------------------------|
G|--8----------------------------------------------|
D|--8----------------------------------------------|
A|--6----------------------------------------------|
D|-------------------------------------------------|
  |
  |GTR II
E|-------------------------------------------------|
B|-------------------------------------------------|
G|-------------14-----b--r-12----------14-----b--r-|
D|-------------------------------------------------|
A|-------------------------------------------------|
D|-------------------------------------------------|

   GTR I
E|-------------------------------------------------|
B|-------------------------------------------------|
G|-------------------------------------------------|
D|--5----------------------------------------------|
A|--5----------------------------------------------|
D|--5----------------------------------------------|
  |
  |GTR II
E|-------------------------------------------------|
B|-------------------------------------------------|
G|-12----------------14-14/15----14----12----------|
D|-------------------------------------------15----|
A|-------------------------------------------------|
D|-------------------------------------------------|

   GTR I
E|-------------------------------------------------|
B|-------------------------------------------------|
G|--8----------------------------------------------|
D|--8----------------------------------------------|
A|--6----------------------------------------------|
D|-------------------------------------------------|
  |
  |GTR II
E|-------------------------------------------------|
B|-------------------------------------------------|
G|-------------14-----b--r-12----------14-----b--r-|
D|-13----------------------------------------------|
A|-------------------------------------------------|
D|-------------------------------------------------|

   GTR I
E|-------------------------------------------------|
B|-------------------------------------------------|
G|-------------------------------------------------|
D|--5----------------------------------------------|
A|--5----------------------------------------------|
D|--5----------------------------------------------|
  |
  |GTR II
E|-------------------------------------------------|
B|-------------------------------------------15----|
G|-12----------------14-14/15----14----12----------|
D|-------------------------------------------------|
A|-------------------------------------------------|
D|-------------------------------------------------|

   GTR I
E|-------------------------------------------------|
B|-------------------------------------------------|
G|--8----------------------------------------------|
D|--8----------------------------------------------|
A|--6----------------------------------------------|
D|-------------------------------------------------|
  |
  |GTR II
E|-------------------------------------------------|
B|-13----------13----15----16-------15-13h-15------|
G|--------------------------------------------15---|
D|-------------------------------------------------|
A|-------------------------------------------------|
D|-------------------------------------------------|

   GTR I
E|-------------------------------------------------|
B|-------------------------------------------------|
G|-------------------------------------------------|
D|--5----------------------------------------------|
A|--5----------------------------------------------|
D|--5----------------------------------------------|
  |
  |GTR II
E|-------------------------------------------------|
B|-------------------13----15----13----------15----|
G|-------------15----------------------15----------|
D|-------------------------------------------------|
A|-------------------------------------------------|
D|-------------------------------------------------|

   GTR I
E|-------------------------------------------------|
B|-------------------------------------------------|
G|--8----------------------10----------------------|
D|--8----------------------10----------------------|
A|--6-----------------------8----------------------|
D|-------------------------------------------------|
  |
  |GTR II
E|-------------------------------------------------|
B|-13----------15----------16----------18----------|
G|-------------------------------------------------|
D|-------------------------------------------------|
A|-------------------------------------------------|
D|-------------------------------------------------|

Refrão 2

   GTR I
E|-------------------------------------------------|
B|-------------------------------------------------|
G|-------------------------------------------------|
D|--5-----5--------5--------7-----7--------7-------|
A|--5-----5-----0--5-----0--7-----7-----0--7-----0-|
D|--5-----5-----0--5-----0--7-----7-----0--7-----0-|
  |              .        .              .        .
  |GTR II
E|-------------------------------------------------|
B|-18b~--------------------------------------------|
G|-------------------------------------------------|
D|-------------------------------------------------|
A|-------------------------------------------------|
D|-------------------------------------------------|

   GTR I
E|-------------------------------------------------|
B|-------------------------------------------------|
G|-------------------------------------------------|
D|--8-----8--------8-------10-10-10-10-12-12-12-12-|
A|--8-----8-----0--8-----0-10-10-10-10-12-12-12-12-|
D|--8-----8-----0--8-----0-10-10-10-10-12-12-12-12-|
  |              .        .
  |GTR II
E|-------------------------------------------------|
B|-------------------------------------------------|
G|-------------------------------------------------|
D|-------------------------------------------10-10-|
A|-------------------------------------------------|
D|-------------------------------------------------|

   GTR I
E|-------------------------------------------------|
B|-------------------------------------------------|
G|-------------------------------------------------|
D|--5-----5--------5--------7-----7--------7-------|
A|--5-----5-----0--5-----0--7-----7-----0--7-----0-|
D|--5-----5-----0--5-----0--7-----7-----0--7-----0-|
  |              .        .              .        .
  |GTR II
E|-------------------------------------------------|
B|-------------------------------------------------|
G|----------------------------------------15----14-|
D|-10h12----------------------14----15-------------|
A|-------13----10~---------------------------------|
D|-------------------------------------------------|

   GTR I
E|-------------------------------------------------|
B|-------------------------------------------------|
G|-------------------------------------------------|
D|--8-----8--------8-------13----------12----------|
A|--8-----8-----0--8-----0-13----------12----------|
D|--8-----8-----0--8-----0-13----------12----------|
  |              .        .
  |GTR II
E|-------------------------------------------------|
B|-------------------------------------------------|
G|------------------------/20~---------------------|
D|-------------------------------------------------|
A|-------------------------------------------------|
D|-------------------------------------------------|

   GTR I,II
E|-------------------------------------------------|
B|-------------------------------------------------|
G|-------------------------------------------------|
D|--5-----5--------5--------7-----7--------7-------|
A|--5-----5-----0--5-----0--7-----7-----0--7-----0-|
D|--5-----5-----0--5-----0--7-----7-----0--7-----0-|
                 .        .              .        .

   GTR I,II
E|-------------------------------------------------|
B|-------------------------------------------------|
G|-------------------------------------------------|
D|--8-----8--------8-------10-10-10-10-10-10-10-10-|
A|--8-----8-----0--8-----0-10-10-10-10-10-10-10-10-|
D|--8-----8-----0--8-----0-10-10-10-10-10-10-10-10-|
                 .        .

   GTR I,II
E|-------------------------------------------------|
B|-------------------------------------------------|
G|--7-----7-----7-----7-----7-----7-----7-----7----|
D|--7-----7-----7-----7-----7-----7-----7-----7----|
A|--5-----5-----5-----5-----5-----5-----5-----5----|
D|-------------------------------------------------|

   GTR I
E|-------------------------------------------------|
B|-------------------------------------------------|
G|--7-----7-----7-----7-----7-----7-----7-----7----|
D|--7-----7-----7-----7-----7-----7-----7-----7----|
A|--5-----5-----5-----5-----5-----5-----5-----5----|
D|-------------------------------------------------|
  |
  |GTR II
E|-------------------------------------15----15----|
B|-------------------------------------18b---18b---|
G|-------------------------------------------------|
D|-------------------------------------------------|
A|-------------------------------------------------|
D|-------------------------------------------------|

Outro Solo

   GTR I
E|-------------------------------------------------|
B|-------------------------------------------------|
G|-------------------------------------------------|
D|--5-----5-----0--3-----0--5-----5-----0--3-----0-|
A|--5-----5-----0--3-----0--5-----5-----0--3-----0-|
D|--5-----5-----0--3-----0--5-----5-----0--3-----0-|
  |
  |GTR II
E|-------------------------------------------------|
B|-------------------------------------------------|
G|-------------------------------------------------|
D|-------------------------------------------------|
A|-------------------------------------------------|
D|-------------------------------------------------|

   GTR I
E|-------------------------------------------------|
B|-------------------------------------------------|
G|-------------------------------------------(5)---|
D|--5-----5-----0--3-----0--6--6--6--6--6-(5)------|
A|--5-----5-----0--3-----0--6--6--6--6--6----------|
D|--5-----5-----0--3-----0--6--6--6--6--6----------|
  |
  |GTR II
E|-------------------------------------------------|
B|-------------------------------------------------|
G|-------------------------------------------------|
D|-------------------------------------------------|
A|-------------------------------------------------|
D|-------------------------------------------------|

   GTR I
E|-------------------------------------------------|
B|-------------------------------------------------|
G|-------------------------------------------------|
D|--5-----5-----0--3-----0--5-----5-----0--3-----0-|
A|--5-----5-----0--3-----0--5-----5-----0--3-----0-|
D|--5-----5-----0--3-----0--5-----5-----0--3-----0-|

  |GTR II
E|-------------------------------------------------|
B|-------------------------------------------------|
G|-------------------------------------------------|
D|-------------------------------------------------|
A|-------------------------------------------------|
D|-------------------------------------------------|

   GTR I
E|-------------------------------------------------|
B|-------------------------------------------------|
G|-------------------------------------------------|
D|--5-----5-----0--3-----0--6--6--6--6--6-(5)(5)(5)|
A|--5-----5-----0--3-----0--6--6--6--6--6-(5)(5)(5)|
D|--5-----5-----0--3-----0--6--6--6--6--6-(5)(5)(5)|
  |
  |GTR II
E|-------------------------------------------------|
B|-------------------------------------------------|
G|-------------------------------------------------|
D|-------------------------------------------------|
A|-------------------------------------------------|
D|-------------------------------------------------|

   GTR I
E|-------------------------------------------------|
B|-------------------------------------------------|
G|-------------------------------------------------|
D|--5-----5-----0--3-----0--5-----5-----0--3-----0-|
A|--5-----5-----0--3-----0--5-----5-----0--3-----0-|
D|--5-----5-----0--3-----0--5-----5-----0--3-----0-|
  |
  |GTR II
E|-------------------------------------------------|
B|-------------------------------------------------|
G|-------------------------------------------------|
D|-------------------------------------------------|
A|-------------------------------------------------|
D|-------------------------------------------------|

   GTR I
E|-------------------------------------------------|
B|-------------------------------------------------|
G|-------------------------------------------(5)---|
D|--5-----5-----0--3-----0--6--6--6--6--6-(5)------|
A|--5-----5-----0--3-----0--6--6--6--6--6----------|
D|--5-----5-----0--3-----0--6--6--6--6--6----------|
  |
  |GTR II
E|-------------------------------------------------|
B|-------------------------------------------------|
G|-------------------------------------------------|
D|-------------------------------------------------|
A|-------------------------------------------------|
D|-------------------------------------------------|

   GTR I
E|-------------------------------------------------|
B|-------------------------------------------------|
G|-------------------------------------------------|
D|--5-----5-----0--3-----0--5-----5-----0--3-----0-|
A|--5-----5-----0--3-----0--5-----5-----0--3-----0-|
D|--5-----5-----0--3-----0--5-----5-----0--3-----0-|
  |
  |GTR II
E|-------------------------------------------------|
B|-------------------------------------------------|
G|-------------------------------------------------|
D|-------------------------------------------------|
A|-------------------------------------------------|
D|-------------------------------------------------|

   GTR I
E|-------------------------------------------------|
B|-------------------------------------------------|
G|-------------------------------------------------|
D|--5-----5-----0--3-----0--6--6--6--6--6----------|
A|--5-----5-----0--3-----0--6--6--6--6--6----------|
D|--5-----5-----0--3-----0--6--6--6--6--6----------|
  |
  |GTR II
E|-------------------------------------------------|
B|-------------------------------------------------|
G|-------------------------------------------------|
D|-------------------------------------------------|
A|-------------------------------------------------|
D|-------------------------------------------------|
Composição de Halestorm
Colaboração e revisão:
  • Julio Dourado
561 exibições
    • ½ Tom
    • A
    • Bb
    • B
    • C
    • Db
    • D
    • Eb
    • E
    • F
    • F#
    • G
    • Ab
  • Adicionar à lista

    0 comentários

    Ver todos os comentários
    00:00 / 00:00
    Outros vídeos desta música
    Repetir Qualidade Automático
    Outros vídeos desta música
    00:00 / 00:00
    Automático

    Cifra Club Pro

    Aproveite o Cifra Club com benefícios exclusivos e sem anúncios
    Cifra Club Pro
    Aproveite o Cifra Club com benefícios exclusivos e sem anúncios
    OK