Cifra Club

Aprenda

Get Lucky

Halestorm

Cifra: Principal (violão e guitarra)
tom: A
Afinação: D A D G B E

[Intro] D
 
E|--------------------|
B|--------------------|
G|--------------------|
D|-----0-0-0-0-0-0-0--|
A|-0h2-0-0-0-0-0-0-0--|
D|-0h2-0-0-0-0-0-0-0--|

[Primeira Parte]

( D )

Like the legend of the phoenix
Our ends were beginnings
What keeps the planet spinning
The force from the beginning

[Pré Refrão]

   Dm     F7+   Am     G
E|-----1-------------------3--|
B|---3--------1-----1----3----|
G|-2--------2----------0------|    
D|--------3-------2-----------|
A|--------------0-------------|
D|----------------------------|

D              F
We've come too far
      A           G
To give up who we are
D                  F
So let's raise the bar
        A             G
And our cups to the stars

(Riff)

E|---------------|
B|---------------|
G|---------------|
D|---------------|
A|-------0-3-5---|
D|-0-3-5-------0-|

[Refrão]

D
She's up all night 'til the sun
F
I'm up all night to get some
A
She's up all night for good fun
G                            Riff 01.
I'm up all night to get lucky

D
She's up all night 'til the sun
F
I'm up all night to get some
A
She's up all night for good fun
G                            Riff 01
I'm up all night to get lucky

[Segunda Parte]

( D )

E|----------------------------------------------------------------------|
B|------------3------------3-----3-------------3----------------------3-|
G|-0h1-0h1--1---0h1-0h1--1---0h1---0h1h2p0-0h1-----------0h1-0h1--0h1---|
D|---------0------------0----------------------------------------0------|
A|----------------------------------------------------------------------|
D|----------------------------------------------------------------------|

The present has no rhythm
Your gift keeps on giving
What is this I'm feeling?
If you want to leave, I'm with it

[Pré Refrão]

   Dm     F7+   Am     G
E|-----1-------------------3--|
B|---3--------1-----1----3----|
G|-2--------2----------0------|    
D|--------3-------2-----------|
A|--------------0-------------|
D|----------------------------|

   Dm     F7+   Am     G
E|-----1-------------------3--|
B|---3--------1-----1----3----|
G|-2--------2----------0------|    
D|--------3-------2-----------|
A|--------------0-------------|
D|----------------------------|

D              F
We've come too far
      A           G
To give up who we are
D                  F
So let's raise the bar
        A             G
And our cups to the stars

[Refrão]

(Riff)

E|---------------|
B|---------------|
G|---------------|
D|---------------|
A|-------0-3-5---|
D|-0-3-5-------0-|

D
She's up all night 'til the sun
F
I'm up all night to get some
A
She's up all night for good fun
G                            Riff 01.
I'm up all night to get lucky
D
She's up all night 'til the sun
F
I'm up all night to get some
A
She's up all night for good fun
G                            Riff 01.
I'm up all night to get lucky

D
We're up all night to get
D
We're up all night to get
D
We're up all night to get
D
We're up all night to get lucky

[Solo] D 

E|-12-12-12~13-12-------------------------------14b------------------------|
B|----------------14-13-12-13-12--------------------12-13-14~--------------|
G|-------------------------------14-13-12-13-14~--------------12-13-14-----|
D|-------------------------------------------------------------------------|
A|-------------------------------------------------------------------------|
D|-------------------------------------------------------------------------|

E|-------------------------------------------------------------------------|
B|-------------------------------------------------------------------------|
G|-12-13-14-12-12h13-12-13-14-12-12h13-12-13-14-12-12h13~-12b-12h13--------|
D|-------------------------------------------------------------------------|
A|-------------------------------------------------------------------------|
D|-------------------------------------------------------------------------|

E|-------------------------------------------------------------------------|
B|-------------------------------------------------------------------------|
G|-12h13~12h13~14b-14b-----------------------------------------------------|
D|---------------------14-12-10-8-7-6-5------------------------------------|
A|--------------------------------------7-6-5-0h5b/1-----------------------|
D|-------------------------------------------------------------------------|

    Dm      F7+           Am       G
E|-------1-------0-----------------------3-------|
B|-----3-------1---1---1--------1------3-----|
G|---2-------2-------2--------3------0-------|  
D|-0-------3----------------2------0---------|     
A|------------------------0------------------|
D|-------------------------------------------|

    Dm      F7+           Am       G
E|-------1-------0-----------------------3---|
B|-----3-------1---1---1--------1------3-----|
G|---2-------2-------2--------3------0-------|  
D|-0-------3----------------2------0---------|     
A|------------------------0------------------|
D|-------------------------------------------|

Dm
She's up all night 'til the sun
F7+
I'm up all night to get some
Am
She's up all night for good fun
G
I'm up all night to get lucky
Dm
We're up all night 'til the sun
F7+
I’m up all night to get some
Am
We're up all night for good fun
G
We're up all night to get lucky

E|-12b~-8~-12b~--------|
B|--------------10-|
G|-----------------|   
D|-----------------|
A|-----------------|
D|-----------------|

E|-12b~-8~-12b~--------|
B|--------------10-|
G|-----------------|   
D|-----------------|
A|-----------------|
D|-----------------|

E|-12b~-8~-12b~--------|
B|--------------10-|
G|-----------------|   
D|-----------------|
A|-----------------|
D|-----------------|

E|-12b~-8~-12b~--------|
B|--------------10-|
G|-----------------|   
D|-----------------|
A|-----------------|
D|-----------------|

D
She's up all night 'til the sun
F
I'm up all night to get some
A
She's up all night for good fun
G
I'm up all night to get lucky
D
We're up all night 'til the sun
F
We're up all night to get some
G
We're up all night for good fun
A
We're up all night to get lucky

E|-----------------------------------------------------------------|
B|-----------------------------------------------------------------|
G|-12b~-12h13---12h13~12h13~14b-14b--------------------------------|
D|----------------------------------14-12-10-8-7-6-5---------------|
A|---------------------------------------------------7-6-5-0h5b/1--|
D|-----------------------------------------------------------------|

D
We're up all night to get lucky
F
We're up all night to get lucky
A
We're up all night to get lucky
G
We're up all night to get lucky

D
Up all night to get
D
Up all night to get lucky
D
Up all night to get
D
Up all night to get lucky
Composição de Daft Punk
Colaboração e revisão:
  • Douglas OK
290 exibições
    • ½ Tom
    • A
    • Bb
    • B
    • C
    • Db
    • D
    • Eb
    • E
    • F
    • F#
    • G
    • Ab
  • Adicionar à lista

    0 comentários

    Ver todos os comentários
    00:00 / 00:00
    Outros vídeos desta música
    Repetir Qualidade Automático
    Outros vídeos desta música
    00:00 / 00:00
    Automático

    Cifra Club Pro

    Aproveite o Cifra Club com benefícios exclusivos e sem anúncios
    Cifra Club Pro
    Aproveite o Cifra Club com benefícios exclusivos e sem anúncios
    OK