Cifra Club

Turn Your Love

Half Moon Run

Cifra: Principal (violão e guitarra)
tom: Bm
[Intro]

E|--0----------------0---x--3----------------------------------------|
B|--1----------------1--h1--0----------------------------------------|
G|--0----------------2---0--0----------------------------------------|
D|--2--0-0-2-2-------2---0--0----------------------------------------| 
A|--3----------------0---2--2----------------------------------------|
E|-------------3-3-------3--3----------------------------------------|

E|--0----------------0---x--3----------------------------------------|
B|--1----------------1--h1--0----------------------------------------|
G|--0----------------2---0--0----------------------------------------|
D|--2--0-0-2-2-------2---0--0----------------------------------------| 
A|--3----------------0---2--2----------------------------------------|
E|-------------3-3-------3--3----------------------------------------|

E|--0----------------0--x--------------------------------------------|
B|--1----------------1--x--------------------------------------------|
G|--0----------------2--x--------------------------------------------|
D|--2--0-0-2-2-------2--x--------------------------------------------|
A|--3----------------0--x--------------------------------------------|
E|-------------3-3---------------------------------------------------|


[Verse 1]

E|--0---------------0--0----0--0----0--x----0--0----0--0----0--0----0--x--------|
B|--1---------------1--1----1--1----0--3----1--1----1--1----1--1----0--3--------|
G|--0---------------2--2----0--0----0--2----0--0----2--2----0--0----0--2--------|
D|--2--0-0-2-2------2--0----2--0----2--0----2--0----2--0----2--0----2--0--------|
A|--3---------------0--2----3--3----2--x----3--2----0--2----3--3----2--x--------|
E|-------------3-3------------------0-------------------------------0-----------|


[Instrumental]

E|--0----------------0---x--3----------------------------------------|
B|--1----------------1--h1--0----------------------------------------|
G|--0----------------2---0--0----------------------------------------|
D|--2--0-0-2-2-------2---0--0----------------------------------------| 
A|--3----------------0---2--2----------------------------------------|
E|-------------3-3-------3--3----------------------------------------|

E|--0----------------0---x--3----------------------------------------|
B|--1----------------1--h1--0----------------------------------------|
G|--0----------------2---0--0----------------------------------------|
D|--2--0-0-2-2-------2---0--0----------------------------------------| 
A|--3----------------0---2--2----------------------------------------|
E|-------------3-3-------3--3----------------------------------------|


[Verse 2]

E|--0--0----0--0----0--x----0--0----0--0----0--0----0--x-------------|
B|--1--1----1--1----0--3----1--1----1--1----1--1----0--3-------------|
G|--2--2----0--0----0--2----0--0----2--2----0--0----0--2-------------|
D|--2--0----2--0----2--0----2--0----2--0----2--0----2--0-------------|  
A|--0--2----3--3----2--x----3--2----0--2----3--3----2--x-------------|
E|------------------0-------------------------------0----------------|

E|--0--0----0--0----0--x----0--0----0--0----0--0----0--x-------------|
B|--1--1----1--1----0--3----1--1----1--1----1--1----0--3-------------|
G|--2--2----0--0----0--2----0--0----2--2----0--0----0--2-------------|
D|--2--0----2--0----2--0----2--0----2--0----2--0----2--0-------------|  
A|--0--2----3--3----2--x----3--2----0--2----3--3----2--x-------------|
E|------------------0-------------------------------0----------------|


[Pre chorus]

E|--3----2-----------------------------------------------------------|
B|--0----2-----------------------------------------------------------|
G|--0----3-----------------------------------------------------------|
D|--0----4-----------------------------------------------------------|
A|--2----4-----------------------------------------------------------|
E|--3----2-----------------------------------------------------------|


[Chorus]

E|--3--0----0--0-----2--0--------------------------------------------|
B|--0--1----0--1-----3--1--------------------------------------------|
G|--0--2----0--0-----4--2--------------------------------------------|
D|--0--2----2--2-----4--2--------------------------------------------| 
A|--2--0----2--3-----2--0--------------------------------------------|
E|--3-------0--------------------------------------------------------|

E|--3--0----0--0-----2--0--------------------------------------------|
B|--0--1----0--1-----3--1--------------------------------------------|
G|--0--2----0--0-----4--2--------------------------------------------|
D|--0--2----2--2-----4--2--------------------------------------------| 
A|--2--0----2--3-----2--0--------------------------------------------|
E|--3-------0--------------------------------------------------------|


[Verse 3]

E|--0--0----0--0----0--x----0--0----0--0----0--0----0--x-------------|
B|--1--1----1--1----0--3----1--1----1--1----1--1----0--3-------------|
G|--2--2----0--0----0--2----0--0----2--2----0--0----0--2-------------|
D|--2--0----2--0----2--0----2--0----2--0----2--0----2--0-------------| 
A|--0--2----3--3----2--x----3--2----0--2----3--3----2--x-------------|
E|------------------0-------------------------------0----------------|

E|--0--0----0--0----0--x----0--0----0--0----0--0----0--x-------------|
B|--1--1----1--1----0--3----1--1----1--1----1--1----0--3-------------|
G|--2--2----0--0----0--2----0--0----2--2----0--0----0--2-------------|
D|--2--0----2--0----2--0----2--0----2--0----2--0----2--0-------------|  
A|--0--2----3--3----2--x----3--2----0--2----3--3----2--x-------------|
E|------------------0-------------------------------0----------------|


[Bridge]

E|--3--0----0--0-----2--0--------------------------------------------|
B|--0--1----0--1-----3--1--------------------------------------------|
G|--0--2----0--0-----4--2--------------------------------------------|
D|--0--2----2--2-----4--2--------------------------------------------| 
A|--2--0----2--3-----2--0--------------------------------------------|
E|--3-------0--------=-----------------------------------------------|

E|--3--0----0--0-----2--0--------------------------------------------|
B|--0--1----0--1-----3--1--------------------------------------------|
G|--0--2----0--0-----4--2--------------------------------------------|
D|--0--2----2--2-----4--2--------------------------------------------| 
A|--2--0----2--3-----2--0--------------------------------------------|
E|--3-------0--------=-----------------------------------------------|


[Chorus]

E|--3--0----0--0-----2--0--------------------------------------------|
B|--0--1----0--1-----3--1--------------------------------------------|
G|--0--2----0--0-----4--2--------------------------------------------|
D|--0--2----2--2-----4--2--------------------------------------------|
A|--2--0----2--3-----2--0--------------------------------------------|
E|--3-------0--------------------------------------------------------|

E|--3--0----0--0-----2--0--------------------------------------------|
B|--0--1----0--1-----3--1--------------------------------------------|
G|--0--2----0--0-----4--2--------------------------------------------|
D|--0--2----2--2-----4--2--------------------------------------------|
A|--2--0----2--3-----2--0--------------------------------------------|
E|--3-------0--------------------------------------------------------|


[Outro]

E|--0----------------0---x--3----------------------------------------|
B|--1----------------1--h1--0----------------------------------------|
G|--0----------------2---0--0----------------------------------------|
D|--2--0-0-2-2-------2---0--0----------------------------------------|  
A|--3----------------0---2--2----------------------------------------|
E|-------------3-3-------3--3----------------------------------------|

E|--0----------------0---x--3----------------------------------------|
B|--1----------------1--h1--0----------------------------------------|
G|--0----------------2---0--0----------------------------------------|
D|--2--0-0-2-2-------2---0--0----------------------------------------|  
A|--3----------------0---2--2----------------------------------------|
E|-------------3-3-------3--3----------------------------------------|

E|--0-----------------0--2-------------------------------------------|
B|--0-----------------1--3-------------------------------------------|
G|--0-----------------0--4-------------------------------------------|
D|--2-----------------2--4-------------------------------------------|  
A|--2------------2-2--3--2-------------------------------------------|
E|--0--2-2--3-3------------------------------------------------------|

E|--0-----------------0--2-------------------------------------------|
B|--0-----------------1--3-------------------------------------------|
G|--0-----------------0--4-------------------------------------------|
D|--2-----------------2--4-------------------------------------------|  
A|--2------------2-2--3--2-------------------------------------------|
E|--0--2-2--3-3------------------------------------------------------|
00:00 / 00:00
Outros vídeos desta música
Repetir
Outros vídeos desta música
Compositor não encontrado.
Colaboração e revisão:
  • Daniel Deniizin
156 exibições
    • ½ Tom
    • Am
    • Bbm
    • Bm
    • Cm
    • C#m
    • Dm
    • Ebm
    • Em
    • Fm
    • F#m
    • Gm
    • G#m
  • Adicionar à lista

    0 comentários

    Ver todos os comentários

    Entre para oCifra Club PRO

    Tenha acesso a benefícios exclusivos no App e no Site

    • Chega de anúncios

    • Prioridade de compra em lançamentos

    • Mais recursos no app do Afinador

    • Atendimento Prioritário

    • Descontos nos produtos Cifra Club

    • Ajude a produzir mais conteúdo

    00:00 / 00:00

    Cifra Club Pro

    Aproveite o Cifra Club com benefícios exclusivos e sem anúncios
    Cifra Club Pro
    Aproveite o Cifra Club com benefícios exclusivos e sem anúncios
    OK