Cifra Club

Any Means Necessary

HammerFall

Cifra: Principal (violão e guitarra)
Selo Cifra Club: esta cifra foi revisada para atender aos critérios oficiais da nossa Equipe de Qualidade.
tom: Bm
Intro:


E|----------------------------------|
B|----------------------------------|
G|----------------------------------|
D|-\2-2---2-0-2-3-0---2-2---2-0-5-4-|
A|-\2-2---2-0-2-3-0---2-2---2-0-5-4-|
E|-\2-2---2-0-2-3-0---2-2---2-0-5-4-| x2


Verse:


E|-------------------------------------------------------------|
B|-------------------------------------------------------------|
G|-------------------------------------------------------------|
D|------------------------5\-3----------------------------5\-3-|
A|-3--3-3-3--3-3-3--3-3-3-3\-1--3--3-3-3--3-3-3--3--3-3-3-3\-1-|
E|-------------------------------------------------------------|

E|-----------------------------------|
B|-----------------------------------|
G|-----------------------------------|
D|-----------------------------------|
A|------------------------------7/-9-|
E|-5--5-5-5--7--7-7-7--5--5-5-5-5/-7-|

E|-------------------------------------------------------------|
B|-------------------------------------------------------------|
G|-------------------------------------------------------------|
D|------------------------5\-3----------------------------5\-3-|
A|-3--3-3-3--3-3-3--3-3-3-3\-1--3--3-3-3--3-3-3--3--3-3-3-3\-1-|
E|-------------------------------------------------------------|

E|--------------------------------|
B|--------------------------------|
G|--------------------------------|
D|--------------------------------|
A|------------------------------7-|
E|-5--5-5-5--7--7-7-7--5--5-5-5-5-|


Pre-Chorus:


E|--------------------------------------------------------------|
B|--------------------------------------------------------------|
G|--------------------------------------------------------------|
D|--------------------------------------------------------------|
A|----------------------------------------------------6-4-6-(6)-|
E|-\3--3-3-3--3-3-3---3-3-3--4--4-4-4--4-4-4--4-4-4-4-4-2-4-(4)-|


Chorus:


E|-----------------------------|
B|-----------------------------|
G|-----------------------------|
D|-\7--7--9--6--8--8--10--7--9-|
A|-\7--7--9--6--8--8--10--7--9-|
E|-\5--5--7--4--6--6---8--5--7-|



After Chorus:


E|----------------------------------------------------|
B|----------------------------------------------------|
G|----------------------------------------------------|
D|-----------------------------------------------5--7-|
A|--2--2-2-2--2-2-2--2-2-2--2-2-2--2-2-2--2-2-2--3/-5-|
E|----------------------------------------------------|



Verse:


E|-------------------------------------------------------------|
B|-------------------------------------------------------------|
G|-------------------------------------------------------------|
D|------------------------5\-3----------------------------5\-3-|
A|-3--3-3-3--3-3-3--3-3-3-3\-1--3--3-3-3--3-3-3--3--3-3-3-3\-1-|
E|-------------------------------------------------------------|

E|-----------------------------------|
B|-----------------------------------|
G|-----------------------------------|
D|-----------------------------------|
A|------------------------------7/-9-|
E|-5--5-5-5--7--7-7-7--5--5-5-5-5/-7-|

E|-------------------------------------------------------------|
B|-------------------------------------------------------------|
G|-------------------------------------------------------------|
D|------------------------5\-3----------------------------5\-3-|
A|-3--3-3-3--3-3-3--3-3-3-3\-1--3--3-3-3--3-3-3--3--3-3-3-3\-1-|
E|-------------------------------------------------------------|

E|--------------------------------|
B|--------------------------------|
G|--------------------------------|
D|--------------------------------|
A|------------------------------7-|
E|-5--5-5-5--7--7-7-7--5--5-5-5-5-|

Pre-Chorus:



E|--------------------------------------------------------------|
B|--------------------------------------------------------------|
G|--------------------------------------------------------------|
D|--------------------------------------------------------------|
A|----------------------------------------------------6-4-6-(6)-|
E|-\3--3-3-3--3-3-3---3-3-3--4--4-4-4--4-4-4--4-4-4-4-4-2-4-(4)-|



Chorus:


E|-----------------------------|
B|-----------------------------|
G|-----------------------------|
D|-\7--7--9--6--8--8--10--7--9-|
A|-\7--7--9--6--8--8--10--7--9-|
E|-\5--5--7--4--6--6---8--5--7-|



The part:I am born to kill judge...goes like this:


E|-----------------------------|
B|-----------------------------|
G|-----------------------------|
D|-\7--7--9--6--8--8--10--7--9-|
A|-\7--7--9--6--8--8--10--7--9-|
E|-\5--5--7--4--6--6---8--5--7-|



After Chorus:

E|--------------------------|
B|--------------------------|
G|--------------------------|
D|-----------7*-----------5*|
A|-----------7*-----------5*|
E|-5--5-5-5-5---5--5-5-5-5--| x2


Bridge:

1st guitar:

E|----------------------------|
B|-12-13-15-13-12----15-13-12-|
G|----------------13b---------|
D|----------------------------|
A|----------------------------|
E|----------------------------| x4

2nd guitar:

E|--------------------------|
B|--------------------------|
G|--------------------------|
D|-----------7*-----------5*|
A|-----------7*-----------5*|
E|-5--5-5-5-5---5--5-5-5-5--| x2

Solo:


E|--------------------------------------------------|
B|--------------------------------------------------|
G|-12b-11-9b--9-11-12b-11-9b--12-14-15b-13-12-11-10-|
D|--------------------------------------------------|
A|--------------------------------------------------|
E|--------------------------------------------------|

E|-------------------------------------------------------------|
B|-------------------------------------------------------------|
G|-/12b-12b-10--10-12-12b-12b-10--11-12-14b-12-11-13b-11-10-10-|
D|-------------------------------------------------------------|
A|-------------------------------------------------------------|
E|-------------------------------------------------------------|

E|----------------------------|
B|-12-13-15-13-12----15-13-12-|
G|----------------13b---------|
D|----------------------------|
A|----------------------------|
E|----------------------------| x2

E|--------------------------------------------------------------|
B|-15-13-12--15-13-12--15-13-12--17-15-14--17-15-14--17-15-14---|
G|---------15--------15--------15--------17--------17--------17-|
D|--------------------------------------------------------------|
A|--------------------------------------------------------------|
E|--------------------------------------------------------------|

E|-15b---14/-15*----17b--|
B|-----------------------|
G|-----------------------|
D|-----------------------|
A|-----------------------|
E|-----------------------|

Chorus:

E|-----------------------------|
B|-----------------------------|
G|-----------------------------|
D|-\7--7--9--6--8--8--10--7--9-|
A|-\7--7--9--6--8--8--10--7--9-|
E|-\5--5--7--4--6--6---8--5--7-|


The part:I am born to kill judge...goes like this:


E|-----------------------------|
B|-----------------------------|
G|-----------------------------|
D|-\7--7--9--6--8--8--10--7--9-|
A|-\7--7--9--6--8--8--10--7--9-|
E|-\5--5--7--4--6--6---8--5--7-|


at the second times the part:I am born to kill judge...
goes like this:

1st guitar:

E|----------------------------|
B|-12-13-15-13-12----15-13-12-|
G|----------------13b---------|
D|----------------------------|
A|----------------------------|
E|----------------------------| x4

2nd guitar:

E|--------------------------|
B|--------------------------|
G|--------------------------|
D|-----------7*-----------5*|
A|-----------7*-----------5*|
E|-5--5-5-5-5---5--5-5-5-5--| x2

Ending:

E|---------|
B|---------|
G|---------|
D|-5--4--2-|
A|-5--4--2-|
E|-3--2--0-| let the notes to play
Outros vídeos desta música
    54 exibições
      • ½ Tom
      • Am
      • Bbm
      • Bm
      • Cm
      • C#m
      • Dm
      • Ebm
      • Em
      • Fm
      • F#m
      • Gm
      • G#m
    • Adicionar à lista

    Afinação da cifra

    Afinador online

      0 comentários

      Ver todos os comentários

      Entre para o Cifra Club PRO

      Tenha acesso a benefícios exclusivos no App e no Site

      • Chega de anúncios

      • Mais recursos no app do Afinador

      • Atendimento Prioritário

      • Aumente seu limite de lista

      • Ajude a produzir mais conteúdo

      Cifra Club Pro

      Aproveite o Cifra Club com benefícios exclusivos e sem anúncios
      Cifra Club Pro
      Aproveite o Cifra Club com benefícios exclusivos e sem anúncios
      OK