Cifra Club

Blood Bound

HammerFall

Cifra: Principal (violão e guitarra)
tom: E
Intro                                Last 2 notes Played only First Time
|----------------------------------------------------------------------------|
|----------------------------------------------------------------------------|
|-9--9-12-11-12-9--9-12-11-12-11--8--8-8-9-9-11-9-12--11-9-14---12-11--|
|----------------------------------------------------------------------------|(x2)
|----------------------------------------------------------------------------|
|----------------------------------------------------------------------------|

|-------------------------------------------------|
|-------------------------------------------------|
|-------------------------------------------------|
|-----------------------------------------------7-|
|-2-2------2------2-2------2-----2-2------2-----5-|
|-0-0-0-0--0-0-0--0-0-0-0--0-3-2-0-0-0-0--0-0-0---|
      . .    . .      . .            . .    . .

|-------------------------------------------------|
|-------------------------------------------------|
|-------------------------------------------------|
|-----------------------------------------------7-|
|-2-2------2------2-2------2-----2-2------2-----5-|
|-0-0-0-0--0-0-0--0-0-0-0--0-3-2-0-0-0-0--0-0-0---|
      . .    . .      . .            . .    . .

|-------------------------------------------------|
|-------------------------------------------------|
|-------------------------------------------------|
|----------------------------------------5-----4--|
|-2-2------2------2-2------2-----2-2-----3-3-3-2--|
|-0-0-0-0--0-0-0--0-0-0-0--0-3-2-0-0-0-0----------|
      . .    . .      . .            . .   . .

|-------------------------------------------------|
|-------------------------------------------------|
|-------------------------------------------------|
|-----------------------------------------------7-|
|-2-2------2------2-2------2-----2-2------2-----5-|
|-0-0-0-0--0-0-0--0-0-0-0--0-3-2-0-0-0-0--0-0-0---|
      . .    . .      . .            . .    . .

|----------------------------------------------|
|----------------------------------------------|
|----------------------------------------------|
|-------------------------------------5-----4--|
|-2-2------2------2-2------2-----2-2--3-3-3-2--|
|-0-0-0-0--0-0-0--0-0-0-0--0-3-2-0-0-----------|
      . .    . .      . .               . .

Before Chorus
|----------------------------------------------|
|----------------------------------------------|
|----------------------------------------------|
|------7---------5--7-----7-----7---4----------|
|-5----5------0--3--5-5-5-5-5-5-5-5-2-2-2-2----|
|-3-----------2--------------------------------|
                      . .   . .   . . . . .

Chorus
|------------------------|----------------------------------------|
|------------------------|----------------------------------------|
|------------------------|----------------------------------------|
|---------5--4--54-------|---------5--4--5------------------------|
|-5-4-2---3--2--32-2-2-2-|-5-4-2---3--2--3--5-4-2-----------------|
|-3-2-0------------0-0-0-|-3-2-0------------3-2-0--(Pick Slide)---|
                 . . . .

|-------------------------------------------------|
|-------------------------------------------------|
|-------------------------------------------------|
|-----------------------------------------------7-|
|-2-2------2------2-2------2-----2-2------2-----5-|
|-0-0-0-0--0-0-0--0-0-0-0--0-3-2-0-0-0-0--0-0-0---|
      . .    . .      . .            . .    . .
[ Tab from: http://www.guitartabs.cc/tabs/h/hammerfall/blood_bound_tab_ver_3.html ]
|-------------------------------------------------|
|-------------------------------------------------|
|-------------------------------------------------|
|----------------------------------------5-----4--|
|-2-2------2------2-2------2-----2-2-----3-3-3-2--|
|-0-0-0-0--0-0-0--0-0-0-0--0-3-2-0-0-0-0----------|
      . .    . .      . .            . .   . .
|----------------------------------------------|
|----------------------------------------------|
|----------------------------------------------|
|------7---------5--7-----7-----7---4----------|
|-5----5------0--3--5-5-5-5-5-5-5-5-2-2-2-2----|
|-3-----------2--------------------------------|
                      . .   . .   . . . . .

Chorus
|------------------------|----------------------------------------|
|------------------------|----------------------------------------|
|------------------------|----------------------------------------|
|---------5--4--54-------|---------5--4--5------------------------|
|-5-4-2---3--2--32-2-2-2-|-5-4-2---3--2--3--5-4-2-----------------|
|-3-2-0------------------|-3-2-0------------3-2-0--(Pick Slide)---|
                 . . . .

|--------------------------------------------------|
|--------------------------------------------------|
|--------------------------------------------------|
|--------------------------------------------------|(x2)
|-4-----------5---4-----------5---4-----------5--2-|
|-2-2-2-2-2-2-3---2-2-2-2-2-2-3---2-2-2-2-2-2-3--0-|
    . . . . .       . . . . .       . . . . .

Solo Pt.1

E ||-------------------------------------------------------------------|
B ||--18\--6/18--18\--6/18--18\----------------------------------------|
G ||-----------------------------8/10--10h12--12h13--13/15---13p12---8-|
D ||-------------------------------------------------------------------|
A ||-------------------------------------------------------------------|
E ||-------------------------------------------------------------------|

E|--------------------------------------------------------------------|
B|--18\--6/18--18\--6/18--18\--------------------------------------18-|
G|-----------------------------8/10--10h12--12h13--13/15---13p12------|
D|--------------------------------------------------------------------|
A|--------------------------------------------------------------------|
E|--------------------------------------------------------------------|

Solo Pt.2

E|----------12t-14t-15t-14t-12t-15t-15t-14t-12t-14t-15t-14t-12t-----|
B|--12t-12t-----------------------------------------------------12t-|
G|------------------------------------------------------------------|
D|------------------------------------------------------------------|
A|------------------------------------------------------------------|
E|------------------------------------------------------------------|

E|--12t-10t-12t-13t---------12t-14t-15t-14t-12t---------12t-14t-15t-14t-12t-|
B|------------------12t-12t---------------------12t-12t---------------------|
G|--------------------------------------------------------------------------|
D|--------------------------------------------------------------------------|
A|--------------------------------------------------------------------------|
E|--------------------------------------------------------------------------|

E|--15t-15t-14t-12t-14t-15t-14t-12t---------------------15t-14t-12t-15t-15t-14t-|
B|----------------------------------12t-12t-10t-12t-13t-------------------------|
G|------------------------------------------------------------------------------|
D|------------------------------------------------------------------------------|
A|------------------------------------------------------------------------------|
E|------------------------------------------------------------------------------|

E|--12t-15t-17p15p14-12----19----------------------------------------||
B|-------------------------------------------------------------------||
G|-------------------------------------------------------------------||
D|-------------------------------------------------------------------||
A|-------------------------------------------------------------------||
E|-------------------------------------------------------------------||
00:00 / 00:00
Outros vídeos desta música
Repetir
Outros vídeos desta música
Composição de Hammerfall
Colaboração e revisão:
  • Renato Falzoni
  • Taino Vieira
8.475 exibições
    • ½ Tom
    • A
    • Bb
    • B
    • C
    • Db
    • D
    • Eb
    • E
    • F
    • F#
    • G
    • Ab
  • Adicionar à lista

    0 comentários

    Ver todos os comentários

    Conseguiu tocar?

    1 Tocaram 0 Ainda não

    Grave um vídeo tocando Blood Bound e nos envie!

    00:00 / 00:00

    Cifra Club Pro

    Aproveite o Cifra Club com benefícios exclusivos e sem anúncios
    Cifra Club Pro
    Aproveite o Cifra Club com benefícios exclusivos e sem anúncios
    OK