Cifra Club

Head Over Heels

HammerFall

Cifra: Principal (violão e guitarra)
Selo Cifra Club: esta cifra foi revisada para atender aos critérios oficiais da nossa Equipe de Qualidade.
tom: E
Baixo:

 A|-----------------------------------------------------|
 E|--0-0-0--0/5/7---------------------------------------| 2x

Guitar(riff - intro):

 e|-14-12-----------14-16----13-13--14-12---------14-16---18-----------|
 B|--------14--14-15-------15------------14-14-15-------15-------------|
 G|--------------------------------------------------------------------|
 D|--------------------------------------------------------------------|2x

1º riff(o que vai seguir o verso da musica):

e|-----------------------|--|---------------------------------------------------|  esse é o do 
B|-----------------------|--|---------------------------------------------------|  verso
G|-7-----7-----7-----7---|--|5------3------7------7----7----7----7--------------|
D|-7-----7-----7-----7---|--|5------3------7------7----7----7----7--------------|
A|-5-xxx-5-xxx-5-xxx-5-0-|--|3xxx-0-1xxx-0-5xxx---5xxx-5xxx-5xxx-5xxx-----------|
E|-----------------------|2x|---------------------------------------------------|

Late at night in the park            |
I saw her slipping in the dark       |esse é o primeiro verso
For heaven`s sake, what`s going on?  |
It`s like someone is here            | 

e|-------------------------------------------------------|
B|-------------------------------------------------------|
G|-77----------------------------------------------------|
D|-77-9-7-9--7----7----7----7-----9----9----9----9-------| pré refrão
A|-55-9-7-9--7----7----7----7-----9----9----9----9-------|
E|----7-5-7--5xxx-5xxx-5xxx-5xxx--7xxx-7xxx-7xxx-7xxx----|2x

Got to follow now             |
Like beeing in trance for me  |
The silence here              | esse é o pré refrão
More than all the noise       |

e|------------------|
B|------------------|
G|-9----7--4-4-7-7-9| refrão
D|-9----7--4-4-7-7-9|
A|-7----5--3-3-5-5-7|
E|------------------| 

Whispering in the dark head over heels                       |
Overheated heart head over heels                             |
Treating it so hard the spurting feels every day, every night|refrão
Whispering in the dark head over heels                       |
Overheated heart head over heels                             |
Treating it so hard the spurting feels, oh yeah!             |

Guitar(riff - intro):

 e|-14-12-----------14-16----13-13--14-12---------14-16---18-----------|
 B|--------14--14-15-------15------------14-14-15-------15-------------|
 G|--------------------------------------------------------------------|
 D|--------------------------------------------------------------------|2x

1º riff(o que vai seguir o verso da musica):

e|-----------------------|--|---------------------------------------------------|  esse é o do 
B|-----------------------|--|---------------------------------------------------|  2º verso
G|-7-----7-----7-----7---|--|5------3------7------7----7----7----7--------------|  que do mesmo 
D|-7-----7-----7-----7---|--|5------3------7------7----7----7----7--------------|  geito
A|-5-xxx-5-xxx-5-xxx-5-0-|--|3xxx-0-1xxx-0-5xxx---5xxx-5xxx-5xxx-5xxx-----------|
E|-----------------------|2x|---------------------------------------------------|

Down on my knees, God help me please                 |
Gotta know who`s out in the dark                     |    2º verso
I`ve stopped my breath, can feel the hands           | 
Could hear the sound of people making love           |

e|-------------------------------------------------------|
B|-------------------------------------------------------|
G|-77----------------------------------------------------|
D|-77-9-7-9--7----7----7----7-----9----9----9----9-------| pré refrão
A|-55-9-7-9--7----7----7----7-----9----9----9----9-------|
E|----7-5-7--5xxx-5xxx-5xxx-5xxx--7xxx-7xxx-7xxx-7xxx----|2x
 
I surrender right now!      |
I`ve to be touched          |
I feel so much...           |pré refrão

e|------------------|
B|------------------|
G|-9----7--4-4-7-7-9| refrão 
D|-9----7--4-4-7-7-9|
A|-7----5--3-3-5-5-7|
E|------------------| 

Whispering in the dark head over heels                         |
Overheated heart head over heels                               |
Treating it so hard the spurting feels every day, every night  |refrão
Whispering in the dark head over heels                         |
Overheated heart head over heels                               |
Treating it so hard the spurting feels, oh yeah!               |

no solo mantenha a base:

e|-----------------------|--|---------------------------------------|
B|-----------------------|--|---------------------------------------|fique assim até acabar o solo
G|-----------------------|--|---------------------------------------| esta  é a base dele!
D|-7----7----7----7-----7|--|-5----5----5----5-----7----7----7----7-|
A|-7----7----7----7-----7|--|-5----5----5----5-----7----7----7----7-|
E|-5xxx-5xxx-5xxx-5xxx0-5|2x|-3xxx-3xxx-3xxx-3xxx0-5xxx-5xxx-5xxx-5-|

Whispering in the dark head over heels                        |
Overheated heart head over heels                              |refrão
Treating it so hard the spurting feels every day, every night |
Whispering in the dark head over heels                        |
Overheated heart head over heels                              |
Treating it so hard the spurting feels every day, every night!|

e|------------------|
B|------------------|
G|-9----7--4-4-7-7-9| refrão 
D|-9----7--4-4-7-7-9|
A|-7----5--3-3-5-5-7|
E|------------------| 

Head over heels, head over heels       |
Head over heels every day, every night |
Head over heels, head over heels       |pré final
Head over heels every day, every night!|

e|-----------------------|--|---------------------------------------------------|  
B|-----------------------|--|---------------------------------------------------|  
G|-7-----7-----7-----7---|--|5------3------7------7----7----7----7--------------|   pré final
D|-7-----7-----7-----7---|--|5------3------7------7----7----7----7--------------|  
A|-5-xxx-5-xxx-5-xxx-5-0-|--|3xxx-0-1xxx-0-5xxx---5xxx-5xxx-5xxx-5xxx-----------|
E|-----------------------|2x|---------------------------------------------------|

e|-----------------------|--|---------------------------------------------------|  
B|-----------------------|--|---------------------------------------------------|  
G|-7-----7-----7-----7---|--|5------3------7------7----7----7----7--------------|    final
D|-7-----7-----7-----7---|--|5------3------7------7----7----7----7--------------|  
A|-5-xxx-5-xxx-5-xxx-5-0-|--|3xxx-0-1xxx-0-5xxx---5xxx-5xxx-5xxx-5xxx-----------|
E|-----------------------|2x|---------------------------------------------------|2x

Head over heels! |final
Outros vídeos desta música
    1.085 exibições
      • ½ Tom
      • A
      • Bb
      • B
      • C
      • Db
      • D
      • Eb
      • E
      • F
      • F#
      • G
      • Ab
    • Adicionar à lista

    Afinação da cifra

    Afinador online

      0 comentários

      Ver todos os comentários

      Entre para o Cifra Club PRO

      Tenha acesso a benefícios exclusivos no App e no Site

      • Chega de anúncios

      • Badges exclusivas

      • Mais recursos no app do Afinador

      • Atendimento Prioritário

      • Aumente seu limite de lista

      • Ajude a produzir mais conteúdo

      Cifra Club Pro

      Aproveite o Cifra Club com benefícios exclusivos e sem anúncios
      Cifra Club Pro
      Aproveite o Cifra Club com benefícios exclusivos e sem anúncios
      OK