Cifra Club

Hearts on fire

HammerFall

Cifra: Principal (violão e guitarra)
tom: A
E-|---------------------------------------------------------|
B-|---------------------------------------------------------|
G-|---------------------------------------------------------|
D-|--4-4------4-----------------------4--------------2------| intro
A-|--4-4------------4-----5-2-4-------------4------5---4----|
E-|--2-2--2-2---2-2---2-2-------2-2-2---2-2---2-2-----------|


E-|---------------------------------------------------|  
B-|---------------------------------------------------|
G-|------------------------6-------------6-6-6-4------|
D-|-------4----------------6-------------6-6-6-4------| intro
A-|--------------4-----5-2-4-4-4-4-4-4-4-4-4-4-2------|
E-|-2-2-2----2-2---2-2--------------------------------|




guitarra 2
E-|---------------10-7-9h----------------------------|
B-|--------------------------------------------------|
G-|------4-6--------------------4-6------------------| 2º intro
D-|-4-4--4-6--4-4----------4-4--4-6------------------|
A-|-4-4--2-4--4-4----------4-4--2-4------------------|
E-|-2-2-------2-2----------2-2-----------------------|



E-|---------------------------------------------------------|
B-|---------------------------------------------------------|
G-|---------------------------------------------------------| 2º intro
D-|--4-4------4-----------------------4--------------2------|
A-|--4-4------------4-----5-2-4-------------4------5---4----|
E-|--2-2--2-2---2-2---2-2-------2-2-2---2-2---2-2-----------|


E-|---------------------------------------------------|
B-|---------------------------------------------------|
G-|------------------------6-------------6-6-6-4------| 2º intro
D-|-------4----------------6-------------6-6-6-4------|
A-|--------------4-----5-2-4-4-4-4-4-4-4-4-4-4-2------|
E-|-2-2-2----2-2---2-2--------------------------------|


E-|---------------------------------------------------|
B-|---------------------------------------------------|
G-|------------------6-6-6-6-6-6----------------------| verso
D-|-4-4---4-4---4-4--6-6-6-6-6-6----------------------|
A-|-4-4---4-4---4-4--4-4-4-4-4-4----------------------|
E-|-2-2---2-2---2-2-----------------------------------|


guitarra 2
E-|--10-7-9h------------------------------------------|
B-|---------------------------------------------------|
G-|---------------------------------------------------|2º verso
D-|---------------------------------------------------|
A-|---------------------------------------------------|
E-|---------------------------------------------------|


E-|---------------------------------------------------|
B-|---------------------------------------------------|
G-|-------------------------------6-6-6-6-6-4---------| 2º verso
D-|-4---------4---------4---------6-6-6-6-6-4---------|
A-|-4---------4---------4---------4-4-4-4-4-2---------|
E-|-2-2-2-2-2-2-2-2-2-2-2-2-2-2-2---------------------|

E-|---------------------------------------------------|
B-|---------------------------------------------------|
G-|--------------------------------------------6-6----| 3º verso
D-|-6-6---------6-6--2-2-----6-6----------2-2--6-6----|
A-|-6-6---------6-6--2-2-2-1-6-6----------2-2--4-4----|
E-|-4-4-4-4-4-4-4-4--0-0-----4-4-4-4-4-4--0-0---------|

E-|---------------------------------------------------|
B-|---------------------------------------------------|
G-|-8-8-8-8-8---------6-6-6--8-8-8-8-8--4-4-4--6-6-6--| refrão
D-|-8-8-8-8-8--4-4-4--6-6-6--8-8-8-8-8--4-4-4--6-6-6--|
A-|-6-6-6-6-6--4-4-4--4-4-4--6-6-6-6-6--2-2-2--4-4-4--|
E-|------------2-2-2----------------------------------|

E-|---------------------------------------------------|
B-|---------------------------------------------------|
G-|-8-8-8-8-8---------6-6-6--4-4-4--6-6-6-------------| refrão 
D-|-8-8-8-8-8--4-4-4--6-6-6--4-4-4--6-6-6-------------|
A-|-6-6-6-6-6--4-4-4--4-4-4--2-2-2--4-4-4-------------|
E-|------------2-2-2----------------------------------|


E-|---------------------------------------------------------|
B-|---------------------------------------------------------|
G-|---------------------------------------------------------|
D-|--4-4------4-----------------------4--------------2------| intro
A-|--4-4------------4-----5-2-4-------------4------5---4----|
E-|--2-2--2-2---2-2---2-2-------2-2-2---2-2---2-2-----------|


E-|---------------------------------------------------|  
B-|---------------------------------------------------|
G-|------------------------6-------------6-6-6-4------|
D-|-------4----------------6-------------6-6-6-4------| intro
A-|--------------4-----5-2-4-4-4-4-4-4-4-4-4-4-2------|
E-|-2-2-2----2-2---2-2--------------------------------|


E-|---------------------------------------------------|
B-|---------------------------------------------------|
G-|------------------6-6-6-6-6-6----------------------| verso
D-|-4-4---4-4---4-4--6-6-6-6-6-6----------------------|
A-|-4-4---4-4---4-4--4-4-4-4-4-4----------------------|
E-|-2-2---2-2---2-2-----------------------------------|


guitarra 2
E-|--10-7-9h------------------------------------------|
B-|---------------------------------------------------|
G-|---------------------------------------------------|2º verso
D-|---------------------------------------------------|
A-|---------------------------------------------------|
E-|---------------------------------------------------|


E-|---------------------------------------------------|
B-|---------------------------------------------------|
G-|-------------------------------6-6-6-6-6-4---------| 2º verso
D-|-4---------4---------4---------6-6-6-6-6-4---------|
A-|-4---------4---------4---------4-4-4-4-4-2---------|
E-|-2-2-2-2-2-2-2-2-2-2-2-2-2-2-2---------------------|

E-|---------------------------------------------------|
B-|---------------------------------------------------|
G-|--------------------------------------------6-6----| 3º verso
D-|-6-6---------6-6--2-2-----6-6----------2-2--6-6----|
A-|-6-6---------6-6--2-2-2-1-6-6----------2-2--4-4----|
E-|-4-4-4-4-4-4-4-4--0-0-----4-4-4-4-4-4--0-0---------|

E-|---------------------------------------------------|
B-|---------------------------------------------------|
G-|-8-8-8-8-8---------6-6-6--8-8-8-8-8--4-4-4--6-6-6--| refrão
D-|-8-8-8-8-8--4-4-4--6-6-6--8-8-8-8-8--4-4-4--6-6-6--|
A-|-6-6-6-6-6--4-4-4--4-4-4--6-6-6-6-6--2-2-2--4-4-4--|
E-|------------2-2-2----------------------------------|

E-|---------------------------------------------------|
B-|---------------------------------------------------|
G-|-8-8-8-8-8---------6-6-6--4-4-4--6-6-6-------------| refrão 
D-|-8-8-8-8-8--4-4-4--6-6-6--4-4-4--6-6-6-------------|
A-|-6-6-6-6-6--4-4-4--4-4-4--2-2-2--4-4-4-------------|
E-|------------2-2-2----------------------------------|

E-|------------------------------------------------------|
B-|--4-4-2---4---2-5-5-5-4-4-2-2---4-4-2---4---2-5-5-4-2-|
G-|--------4---4-----------------4-------4---4-----------| solo
D-|------------------------------------------------------|
A-|------------------------------------------------------|
E-|------------------------------------------------------|


G-|-------------------------------------------------------------------|
D-|-------------------------------------------------------------------| Baixo
A-|-6-6-6-6-6-6-6-6-6-6-6-6-6-6-6-6--4-4-4-4-4-4-4-4-4-4-4-4-4-4-4-4--|
E-|-------------------------------------------------------------------|

                                                                             2x
G-|-------------------------------------------------------------------|
D-|-------------------------------------------------------------------|
A-|-6-6-6-6-6-6-6-6-6-6-6-6-6-6-6-6--2-2-2-2-2-2-2-2-4-4-4-4-4-4-4-4--|
E-|-------------------------------------------------------------------|


 Hearts.... 
E-|----------------------------------------------------------------|
B-|----------------------------------------------------------------|
G-|-8----8----8----8-----8-8-8-8-4-4-4-6-6-6-----------------------|
D-|-8----8----8----8-----8-8-8-8-4-4-4-6-6-6-----------------------|
A-|-6----6----6----6-----6-6-6-6-2-2-2-4-4-4-----------------------|
E-|----------------------------------------------------------------|


E-|---------------------------------------------------|
B-|---------------------------------------------------|
G-|-8-8-8-8-8---------6-6-6--8-8-8-8-8--4-4-4--6-6-6--| refrão
D-|-8-8-8-8-8--4-4-4--6-6-6--8-8-8-8-8--4-4-4--6-6-6--|
A-|-6-6-6-6-6--4-4-4--4-4-4--6-6-6-6-6--2-2-2--4-4-4--|
E-|------------2-2-2----------------------------------|

E-|---------------------------------------------------|
B-|---------------------------------------------------|
G-|-8-8-8-8-8---------6-6-6--4-4-4--6-6-6-------------| refrão 
D-|-8-8-8-8-8--4-4-4--6-6-6--4-4-4--6-6-6-------------|
A-|-6-6-6-6-6--4-4-4--4-4-4--2-2-2--4-4-4-------------|
E-|------------2-2-2----------------------------------|


E-|--------------------------------------------------|
B-|--------------------------------------------------|
G-|---------------------------------6----------------|
D-|---------------------------------6----------------| final
A-|-----5-2-4-------5-2-4-------5-2-4----------------|
E-|-2-2-------2-2-2-------2-2-2----------------------|

guitarra 2
E-|--10-7-9h------------------------------------------|
B-|---------------------------------------------------|
G-|---------------------------------------------------|2º verso
D-|---------------------------------------------------|
A-|---------------------------------------------------|
E-|---------------------------------------------------|
Composição de Cans / Dronjak
Colaboração e revisão:
  • Raphael Garrido
30.883 exibições
    • ½ Tom
    • A
    • Bb
    • B
    • C
    • Db
    • D
    • Eb
    • E
    • F
    • F#
    • G
    • Ab
  • Adicionar à lista

    0 comentários

    Ver todos os comentários
    00:00 / 00:00
    Outros vídeos desta música
    Repetir Qualidade Automático
    Outros vídeos desta música
    00:00 / 00:00
    Automático

    Cifra Club Pro

    Aproveite o Cifra Club com benefícios exclusivos e sem anúncios
    Cifra Club Pro
    Aproveite o Cifra Club com benefícios exclusivos e sem anúncios
    OK