Cifra Club

Heeding the Call

HammerFall

Tab de baixo: Principal
Riff A (Intro)
G-----------------|-----------------|-----------------|-----------------|
D-----------------|-----------------|-----------------|-----------------|
A-----------------|-----------------|-----------------|-----------------|
E-4-4-4-4-4-4-4-4-|-4-4-4-4-4-4-4-4-|-4-4-4-4-4-4-4-4-|-4-4-4-4-0-0-0-0-|                                                                             


G-----------------|-----------------|-----------------|-----------------|
D-----------------|-----------------|-----------------|-----------------|
A-----------------|-----------------|-----------------|-----------------|
E-4-4-4-4-4-4-4-4-|-4-4-4-4-4-4-4-4-|-0-0-----4-4-4-4-|-2-2-4-4-4-4-4-4-|                                                                             


Riff B (Vocals)
G-----------------|-----------------|-----------------|-----------------|
D-----------------|-----------------|-----------------|-----------------|
A-----------------|-----------------|-----------------|-----------------|
E-4-4-4-4-4-4-4-4-|-4-4-4-4-4-4-4-4-|-4-4-4-4-4-4-4-4-|-4-4-4-4-0-0-0-0-|                                                                             


G-----------------|-----------------|-----------------|-----------------|
D-----------------|-----------------|-----------------|-----------------|
A-----------------|-----------------|-----------------|-----------------|
E-4-4-4-4-4-4-4-4-|-4-4-4-4-4-4-4-4-|-0-0-----4-4-4-4-|-2-2-4-4-4-4-4-4-|  


Riff C (Bridge)
G-----------------|-----------------|-----------------|-----------------|
D-------------114-|-----------------|---------------1-|-----------------|
A-2-------2244----|-------------224-|-----------1122--|-6-------6-6-6-6-|
E-----------------|-2-------2244----|-4-------44------|-----------------|                                                                             


G-----------------|-----------------|-----------------|-----------------|
D-----------------|-----------------|-----------------|-----------------|
A-----------------|-2-------2-2-2-2-|-----------------|-----------2-----|
E-0-------0-0-0-0-|-----------------|-2-------2-2-2-2-|-2-2-2-2-2-------|                                                                             


Riff D (Chorus)
G-----------------|-----------------|-----------------|-----------------|
D-----------------|-----------------|-----------------|-----------------|
A-------2---------|-----------------|-2---------------|-2-------4-------|
E-4---------------|-2------4--------|--------2--------|-----------------|                                                                             


G-----------------|-----------------|-----------------|-----------------|
D-----------------|-----------------|-----------------|-----------------|
A-------2---------|-----------------|-2---------------|-----------------|
E-4---------------|-2------4--------|--------2--------|-0-----2-2-4-----|                                                                             


Repeat Riff A
Repeat Riff B
Repeat Riff C
Repeat Riff D


Riff E  
G-----------------|-----------------|-----------------|-----------------|
D-----------------|-----------------|-----------------|-----------------|
A-----------------|-----------------|-6622441122--11--|-----------------|
E-2-4-------------|-----------------|-----------44----|-2-4-------------|                                                                             


G-----------------|-8-8-4-4-6-6-----|-4-4-------------|-----------------|
D-----------------|-------------8-8-|-----6-6-8-8-4-4-|-6~-----4~-------|
A-----------------|-----------------|-----------------|-----------------|
E-----------------|-----------------|-----------------|-----------------|                                                                             


Riff F 
G-----------------|-----------------|-----------------|-----------------|
D-----------------|-----------------|-----------------|-----------------|
A-----------------|-4---------------|-----------------|---66666666666666|
E-11-7777777777777|---22222222222222|-7-44444444444444|-2---------------|                                                                             


G-----------------|-----------------|-----------------|-----------------|-----------------|
D-----------------|-----------------|-----------------|-----------------|-----------------|
A-777777777777777-|-222222222222222-|-----------------|---------1-1-1-1-|-2-2-2-2-4-4-4-4-|
E-----------------|-----------------|-222222222222222-|-4-4-4-4---------|-----------------|                                                                             


Riff G (Solo 1)
G-----------------|-----------------|-----------------|-----------------|
D-----------------|-----------------|-----------------|-----------------|
A-2---------------|--------6--------|-777777777777777-|-222222222222222-|
E-------2---------|-4---------------|-----------------|-----------------|                                                                             


G-----------------|-----------------|
D-----------------|-----------------|
A-----------------|--------4--------|
E-222222222222222-|-2---------------|                                                                       


Riff H (ohhh-ohh)
G-----------------|-----------------|-----------------|-----------------|
D-----------------|-----------------|-----------------|-----------------|
A-444444444444444-|-000000002222222-|-444444444444444-|-0------2--------|
E-----------------|-----------------|-----------------|-----------------|                                                                             


G-----------------|-----------------|-----------------|-----------------|
D-----------------|-----------------|-----------------|-----------------|
A-777777777777777-|-333333335555555-|-777777777777777-|-3------5--------|
E-----------------|-----------------|-----------------|-----------------|                                                                             


G-----------------|-----------------|-----------------|-----------------|
D-555555555555555-|-111111113333333-|-555555555555555-|-1------3--------|
A-----------------|-----------------|-----------------|-----------------|
E-----------------|-----------------|-----------------|-----------------|                                                                             


G-----------------|-----------------|-----------------|-----------------|
D-----------------|-----------------|-----------------|-----------------|
A-----------------|-----------------|-----------------|-----------------|
E-666666666666666-|-222222224444444-|-666666666666666-|-2------4--------|                                                                            


Repeat Riff F


Riff I
G-----------------|-----------------|-----------------|
D---------4-4-4-4-|-4-4-4-4-3-3-3-3-|-4---------------|
A-6-6-6-6---------|-----------------|--------4--------|
E-----------------|-----------------|-----------------|


Riff J (solo 2)
G-----------------|-----------------|-----------------|-----------------|
D-----------------|-----------------|-----------------|-----------------|
A-444444444444444-|-000000022222222-|-----------------|--------2--------|
E-----------------|-----------------|-4---------------|-2---------------|                                                                             


G-----------------|-----------------|-----------------|-----------------|
D-----------------|-----------------|-----------------|-----------------|
A-444444444444444-|-000000022222222-|-0---------------|--------2--------|
E-----------------|-----------------|-----------------|-2-----------4---|  


Rest while Ohh-Ohh
Repeat Chorus(2x)


Riff (Ending)
G-----------------|-----------------|-8-8---------------|----------------|
D-----------------|-----------------|-----9-9-11-11-8-8-|-9-9----8-8-----|
A-----------------|-----------------|-------------------|-----11-----9-9-|
E-2-4444444444444-|-444444444444444-|-------------------|----------------|                                                                             


G-----------------|-----------------|-8-8---------------|----------------|
D-----------------|-----------------|-----9-9-11-11-8-8-|-9-9----8-8-----|
A-----------------|-----------------|-------------------|-----11-----9~--|
E-444444444444444-|-444444444444444-|-------------------|----------------|


G-----------------|
D-----------------|
A-----------------|
E-4-4-4-4--2--2-4-|

End.

                                                                           
______________________________________________________
Contribuição: paulo henrique(ph-bass@ig.com.br)
00:00 / 00:00
Outros vídeos desta música
Repetir
Outros vídeos desta música
Composição de Hammerfall
1.384 exibições

0 comentários

Ver todos os comentários

Conseguiu tocar?

0 Tocaram 0 Ainda não

Grave um vídeo tocando Heeding the Call e nos envie!

00:00 / 00:00

Cifra Club Pro

Aproveite o Cifra Club com benefícios exclusivos e sem anúncios
Cifra Club Pro
Aproveite o Cifra Club com benefícios exclusivos e sem anúncios
OK