Cifra Club

Aprenda

Hotcherie

Hardline

Cifra: Principal (violão e guitarra)
Tom: A#
 
  Album :double eclipse 
  Tabbed by Djemai sersoub :*                                    
  Any comment or correction are welcome .

Verse 

     D5      D5  C5  A#5                                                      
E||-------------------------|----------------------|-------------------------|
B||-------------------------|----------------------|-------------------------|
G||-------------------------|----------------------|-------------------------|
D||--12/-----12--10--8/-----|------8--8--10/-------|--8--8--10/---10r-----8--|
A||--12/-----12--10--8/-----|------8--8--10/-------|--8--8--10/--------------|
E||--10/-----10--8---6/-----|------6--6--8/--------|--6--6--8/---------------|


                                                                             
---------------------------|----------------------|-------------------------|
---------------------------|----------------------|-------------------------|
---------------------------|----------------------|-------------------------|
--------12/-----12--10--8/-|------8--8--10/-------|--12/-----12--10--8/-----|
--10----12/-----12--10--8/-|------8--8--10/-------|--12/-----12--10--8/-----|
--------10------10--8---6/-|------6--6--8/--------|--10/-----10--8---6/-----|


                                                                             
----------------------|-------------------------|---------------------------|
----------------------|-------------------------|---------------------------|
----------------------|-------------------------|---------------------------|
------8--8--10/-------|--8--8--10/---10r-----8--|--------12/-----12--10--8/-|
------8--8--10/-------|--8--8--10/--------------|--10----12/-----12--10--8/-|
------6--6--8/--------|--6--6--8/---------------|--------10------10--8---6/-|


                                                                             
----------------------|-------------------------|---------------------------|
----------------------|-------------------------|---------------------------|
----------------------|-------------------------|---------------------------|
------8--8--10/-------|--8--8--10/---10r-----8--|--------12/-----12--10--8/-|
------8--8--10/-------|--8--8--10/--------------|--10----12/-----12--10--8/-|
------6--6--8/--------|--6--6--8/---------------|--------10------10--8---6/-|


                                                                             
----------------------|-------------------------|---------------------------|
----------------------|-------------------------|---------------------------|
----------------------|-------------------------|---------------------------|
------8--8--10/-------|--8--8--10/---10r-----8--|--------12/-----12--10--8/-|
------8--8--10/-------|--8--8--10/--------------|--10----12/-----12--10--8/-|
------6--6--8/--------|--6--6--8/---------------|--------10------10--8---6/-|


                                                                         
----------------------|----------------------|
----------------------|----------------------|
----------------------|----------------------|
------8--8--10/-------|------8--8--10/-------|
------8--8--10/-------|------8--8--10/-------|
------6--6--8/--------|------6--6--8/--------|



 PRECHORUS :  

--------------------------|
--------------------------|
--------------------------| 
--8--8--8--8--8--8--8--8--|
--8--8--8--8--8--8--8--8--|
--6--6--6--6--6--6--6--6--|
                                                                  
----------------------------------|----------------------------------|
----------------------------------|----------------------------------|
----------------------------------|----------------------------------|
--10--10--10--10--10--10--10--10--|--12--12--12--12--12--12--12--12--|
--10--10--10--10--10--10--10--10--|--12--12--12--12--12--12--12--12--|
--8---8---8---8---8---8---8---8---|--10--10--10--10--10--10--10--10--|


                                                                          
--------------------------|-----------------------|----------------------|
--------------------------|-----------------------|----------------------|
--------------------------|-----------------------|----------------------|
--12----12----12----12----|--12--12--8------------|--12--12--------------|
--12----12----12----12----|--12--12--8------------|--12--12--------------|
--10----10----10----10----|--10--10--6------------|--10--10--------------|


                                                         
CHORUS :

------------------------------|-------------------------|
------------------------------|-------------------------|
------------------------------|-------------------------|
--12--x--12--12----12--x--12--|--8--x--8--8----8--x--8--|
--12--x--12--12----12--x--12--|--8--x--8--8----8--x--8--|
--10--x--10--10----10--x--10--|--6--x--6--6----6--x--6--|


                                                              
------------------------------|------------------------------|
------------------------------|------------------------------|
--10--x--10--10----10--x--10--|------------------------------|
--10--x--10--10----10--x--10--|--10--x--10--10----10--x--10--|
--8---x--8---8-----8---x--8---|--10--x--10--10----10--x--10--|
------------------------------|--8---x--8---8-----8---x--8---|


                                                         
------------------------------|-------------------------|
------------------------------|-------------------------|
------------------------------|-------------------------|
--12--x--12--12----12--x--12--|--8--x--8--8----8--x--8--|
--12--x--12--12----12--x--12--|--8--x--8--8----8--x--8--|
--10--x--10--10----10--x--10--|--6--x--6--6----6--x--6--|


                                                              
------------------------------|------------------------------|
------------------------------|------------------------------|
--10--x--10--10----10--x--10--|------------------------------|
--10--x--10--10----10--x--10--|--10--x--10--10----10--x--10--|
--8---x--8---8-----8---x--8---|--10--x--10--10----10--x--10--|
------------------------------|--8---x--8---8-----8---x--8---|


                                                         
------------------------------|-------------------------|
------------------------------|-------------------------|
------------------------------|-------------------------|
--12--x--12--12----12--x--12--|--8--x--8--8----8--x--8--|
--12--x--12--12----12--x--12--|--8--x--8--8----8--x--8--|
--10--x--10--10----10--x--10--|--6--x--6--6----6--x--6--|


                                                                         
------------------------------|------------------------------|
------------------------------|------------------------------|
--10--x--10--10----10--x--10--|------------------------------|
--8---x--10--10----10--x--10--|--10--x--10--10----10--x--10--|
--8---x--8---8-----8---x--8---|--10--x--10--10----10--x--10--|
------------------------------|--8---x--8---8-----8---x--8---|
1.337 exibições
    • ½ Tom
    • A
    • Bb
    • B
    • C
    • Db
    • D
    • Eb
    • E
    • F
    • F#
    • G
    • Ab
  • Adicionar à lista

    0 comentários

    Mostrar mais comentários

    Conseguiu tocar?

    0 Tocaram 0 Ainda não

    Grave um vídeo tocando Hotcherie e mande pra gente!

    00:00 / 00:00
    outros vídeos desta música
    repetir qualidade Automático
    Outros vídeos desta música
    00:00 / 00:00
    Automático

    Cifra Club Pro

    Aproveite o Cifra Club com benefícios exclusivos e sem anúncios
    Cifra Club Pro
    Aproveite o Cifra Club com benefícios exclusivos e sem anúncios
    OK