Cifra Club

Aprenda

Takin Me Down

Hardline

Cifra: Principal (violão e guitarra)
Tom: E
E|-------------------------------------|------------------------------------|
B|-------------------------------------|------------------------------------|
G|----------------------------9s-7-----|-----------------------------12\----|
D|----------------------------9s-7-----|-----------------------------12\----|
A|--5~--7--------5--7~--------7s-5-----|--5~--7--------5--7-----------------|
E|---------0--0---------0--0--------0--|---------0--0-------0--0--0---------|

-------------------------------------|------------------------|-------------------|
-------------------------------------|------------------------|-------------------|
----------------------------9s-7-----|------------------------|-------------------|
----------------------------9s-7--5~-|--L---------------------|--2----------------|
--5~--7--------5--7~--------7s-5-----|-----7-5-7~--5----------|--2----------------|
---------0--0---------0--0-----------|---------------7-6-5-3--|--0----------------|

-------------------------------------|------------------------------------|
-------------------------------------|------------------------------------|
----------------------------9s-7-----|-----------------------------12\----|
----------------------------9s-7-----|-----------------------------12\----|
--5~--7--------5--7~--------7s-5-----|--5~--7--------5--7-----------------|
---------0--0---------0--0--------0--|---------0--0-------0--0--0---------|

------------------------------------|------------------------|-----------------------|
------------------------------------|------------------------|-----------------------|
---------------------------9s-7-----|------------------------|-----------------------|
---------------------------9s-7--5~-|--L---------------------|--2-2------------------|
--5~--7--------5--7--------7s-5-----|-----7-5-7~--5----------|--2-2------------------|
---------0--0--------0--0-----------|---------------7-6-5-3--|--0-0------------------|

-------------------|-----------------------|-------------------|-----------------------------------|
-------------------|-----------------------|-------------------|-----------------------------------|
-------------------|-----------------------|-------------------|----------------------------9s-7---|
-------------------|--2-2------------------|-------------------|----------------------------9s-7---|
-------------------|--2-2------------------|-------------------|--5~--7--------5--7~--------7s-5---|
-------------------|--0-0------------------|-------------------|---------0--0---------0--0---------|

------------------------------------|------------------------|--------------------------|
------------------------------------|------------------------|--------------------------|
-----------------------------12\----|--9-9\------------------|--------------------------|
-----------------------------12\----|--9-9\------------------|--------------------------|
--5~--7--------5--7-----------------|--7-7\------------------|--------------------------|
---------0--0-------0--0--0---------|------------------------|------------------0h-3p-0-|

-----------------------|-------------------------|-------------------|----------------------|
-----------------------|-----------x-x--x--x--x--|-------------------|----------------------|
-----------------------|-----------x-x--x--x--x--|--2----------------|--4--------<>4--------|
--2-2------------------|-----------x-x--x--x--x--|--2----------------|--4-------------------|
--2-2------------------|-------------------------|--0----------------|--2-------------------|
--0-0------------------|-------------------------|-------------------|----------------------|

--3----------------|-------------------|-----------------------------------------|
--3----------------|-------------------|-----------------------------------------|
--0----------------|--2----------------|-----------------------------------------|
--0----------------|--2----------------|-----------------------------5~----------|
-------------------|--0----------------|--------5--7~-L--------5--7------7-5-7~--|
--3----------------|-------------------|--5--7-----------5--7--------------------|

--------------------3---------|-----------------------------------------|-------------3---------|
--------------------3---------|-----------------------------------------|-------------3---------|
--------------------0----2----|-----------------------------------------|--7----6~----0----2----|
--------------------0----2----|-----------------------------5~----------|--7----7~----0----2----|
--------5--7~-L--5-------0----|--------5--7~-L--------5--7------7-5-7~--|--5---------------0----|
--5--7--------------3---------|--5--7-----------5--7--------------------|-------------3---------|

-----------------------|--(0)------------------|-----------------------|--(0)------------------|
-----------------------|--(0)------------------|-----------------------|--(0)------------------|
-----------------------|-----------------------|-----------------------|-----------------------|
--2-2------------------|-----------------------|--2-2------------------|-----------------------|
--2-2------------------|-----------------------|--2-2------------------|-----------------------|
--0-0------------------|-----------------------|--0-0------------------|-----------------------|

-----------------------------------|------------------------------------|------------------------|
-----------------------------------|------------------------------------|------------------------|
----------------------------9s-7---|-----------------------------12\----|--9-9\------------------|
----------------------------9s-7---|-----------------------------12\----|--9-9\------------------|
--5~--7--------5--7~--------7s-5---|--5~--7--------5--7-----------------|--7-7\------------------|
---------0--0---------0--0---------|---------0--0-------0--0--0---------|------------------------|

--(0)------------------------|-----------------------|--(0)----------------------|
--(0)------------------------|-----------------------|--(0)--------x-x--x--x--x--|
-----------------------------|-----------------------|-------------x-x--x--x--x--|
-----------------------------|--2-2------------------|-------------x-x--x--x--x--|
-----------------------------|--2-2------------------|---------------------------|
---------------------0h-3p-0-|--0-0------------------|---------------------------|

-------------------|----------------------|--3----------------|-------------------|
-------------------|----------------------|--3----------------|-------------------|
--2----------------|--4--------<>4--------|--0----------------|--2----------------|
--2----------------|--4-------------------|--0----------------|--2----------------|
--0----------------|--2-------------------|-------------------|--0----------------|
-------------------|----------------------|--3----------------|-------------------|

-----------3--------|----------------------|-----------3----L-----|-------------------|
--5--------3--------|----------------------|--5--------3----L-----|-------------------|
--5--------0--------|--2-------------------|--5--------0----L--2--|--L----------------|
--5--------0--------|--2-------2--L--------|--5--------0----L--2--|--L----------------|
--3-----------------|--0-------2--L--------|--3----------------0--|--L----------------|
-----------3--------|-------3--0--L--------|-----------3----L-----|-------------------|

-----------3--------|----------------------|----------------------------|-------------------|
--5--------3--------|----------------------|----------------------------|-------------------|
--5--------0--------|--2-------------------|--5----L---5-5-5-5-5-x-x-7--|--L----------------|
--5--------0--------|--2-------2--L--------|--5----L---5-5-5-5-5-x-x-7--|--L----------------|
--3-----------------|--0-------2--L--------|--3----L---3-3-3-3-3-x-x-5--|--L----------------|
-----------3--------|-------3--0--L--------|----------------------------|-------------------|

----------------------------|-----------------------|----------------------------|
----------------------------|-----------------------|----------------------------|
--7h-9---------------7p-6---|--7h-9-----------------|--7h-9---------------7p-6---|
--7h-9---------------7--L---|--7h-9-----------------|--7h-9---------------7--L---|
----------------------------|-----------------------|----------------------------|
-------0--L--------L------0-|-------0--L------------|-------0--L--------L------0-|

----------------------|----------------------------|-----------------------|
----------------------|----------------------------|-----------------------|
--7----L---7-6--------|--7h-9---------------7p-6---|--7h-9-----------------|
--7----L---7-7--------|--7h-9---------------7--L---|--7h-9-----------------|
----------------------|----------------------------|-----------------------|
----------------------|-------0--L--------L------0-|-------0--L------------|

----------------------------|-----------|-------------------|----------------------|
----------------------------|-----------|-------------------|----------------------|
--7h-9---------------7p-6---|--7--------|--2----------------|--4--------<>4--------|
--7h-9---------------7--L---|--7--------|--2----------------|--4-------------------|
----------------------------|--5--------|--0----------------|--2-------------------|
-------0--L--------L------0-|-----------|-------------------|----------------------|

--3----------------|-------------------|-----------3--------|----------------------|
--3----------------|-------------------|--5--------3--------|----------------------|
--0----------------|--2----------------|--5--------0--------|--2-------------------|
--0----------------|--2----------------|--5--------0--------|--2-------2--L--------|
-------------------|--0----------------|--3-----------------|--0-------2--L--------|
--3----------------|-------------------|-----------3--------|-------3--0--L--------|

-----------3----L-----|-------------------|-----------3--------|----------------------|
--5--------3----L-----|-------------------|--5--------3--------|----------------------|
--5--------0----L--2--|--L----------------|--5--------0--------|--2-------------------|
--5--------0----L--2--|--L----------------|--5--------0--------|--2-------2--L--------|
--3----------------0--|--L----------------|--3-----------------|--0-------2--L--------|
-----------3----L-----|-------------------|-----------3--------|-------3--0--L--------|

-------------------|-------------------|-----------3--------|----------------------|
-------------------|-------------------|--5--------3--------|----------------------|
--2----------------|--4----------------|--5--------0--------|--2-------------------|
--2----------------|--4----------------|--5--------0--------|--2-------2--L--------|
--0----------------|--2----------------|--3-----------------|--0-------2--L--------|
-------------------|-------------------|-----------3--------|-------3--0--L--------|

-----------3----L-----|-------------------|-----------3--------|----------------------|
--5--------3----L-----|-------------------|--5--------3--------|----------------------|
--5--------0----L--2--|--L----------------|--5--------0--------|--2-------------------|
--5--------0----L--2--|--L----------------|--5--------0--------|--2-------2--L--------|
--3----------------0--|--L----------------|--3-----------------|--0-------2--L--------|
-----------3----L-----|-------------------|-----------3--------|-------3--0--L--------|

-------------------|-------------------|-----------------------------------------|
-------------------|-------------------|-----------------------------------------|
--2----------------|--4----------------|-----------------------------------------|
--2----------------|--4----------------|-----------------------------5~----------|
--0----------------|--2----------------|--------5--7~-L--------5--7------7-5-7~--|
-------------------|-------------------|--5--7-----------5--7--------------------|

--------------------3---------|-----------------------------------------|-------------3---------|
--------------------3---------|-----------------------------------------|-------------3---------|
--------------------0----2----|-----------------------------------------|--7----6~----0----2----|
--------------------0----2----|-----------------------------5~----------|--7----7~----0----2----|
--------5--7~-L--5-------0----|--------5--7~-L--------5--7------7-5-7~--|--5---------------0----|
--5--7--------------3---------|--5--7-----------5--7--------------------|-------------3---------|

-----------------------------------------|--------------------3---------|
-----------------------------------------|--------------------3---------|
-----------------------------------------|--------------------0----2----|
-----------------------------5~----------|--------------------0----2----|
--------5--7~-L--------5--7------7-5-7~--|--------5--7~-L--5-------0----|
--5--7-----------5--7--------------------|--5--7--------------3---------|

-----------------------------------------|--------------------3---------|
-----------------------------------------|--------------------3---------|
-----------------------------------------|--------------------0---------|
-----------------------------5~----------|--------------------0---------|
--------5--7~-L--------5--7------7-5-7~--|--------5--7~-L--5------------|
--5--7-----------5--7--------------------|--5--7--------------3---------|

-------------------------------------------------------||
-------------------------------------------------------||
--9-9--------------------------------------------------||
--9-9--------------------------------------------------||
--7-7--------------------------------------------------||
-------------------------------------------------------||

Composição de Joey Gioeli / Johnny Gioeli / Neal Schon
Colaboração e revisão:
  • Felipe Oliveira
228 exibições
    • ½ Tom
    • A
    • Bb
    • B
    • C
    • Db
    • D
    • Eb
    • E
    • F
    • F#
    • G
    • Ab
  • Adicionar à lista

    0 comentários

    Mostrar mais comentários

    Conseguiu tocar?

    0 Tocaram 0 Ainda não

    Grave um vídeo tocando Takin Me Down e mande pra gente!

    00:00 / 00:00
    outros vídeos desta música
    repetir qualidade Automático
    Outros vídeos desta música
    00:00 / 00:00
    Automático

    Cifra Club Pro

    Aproveite o Cifra Club com benefícios exclusivos e sem anúncios
    Cifra Club Pro
    Aproveite o Cifra Club com benefícios exclusivos e sem anúncios
    OK