Cifra Club

Desafio

Harmonia do Samba

Cifra: Principal (violão e guitarra)
tom: G
[solo]

E|--------------------------------|
B|--------------------------------|
G|--------4-4----4-4----55----55--|
D|------5----5-5----5-4----44----4|
A|--------------------------------|
E|--------------------------------|

 G        E7        Am
Se você aceitar o desafio
          D7                        G
Eu vou cantar um samba pra você dançar
              E7       Am
Esse swing provoca arrepio
             D7                 G
Pegue o cavaco o show vai começar

               Em     Bm      C   D    G
Vou pedir pra você vibrarr (vibrar, vibrar)
G              Em     Bm
Vou pedir pra você mandar
 Am     D7           G
Mandar meu cavaco chorar
                           G D7
"Mandei meu cavaco chorar"

[solo]

E|--------------------------------------|
B|--------------------------------------|
G|-----------4-----4-4------------------|
D|-------------5-5-----5-5-4------------|
A|--------------------------------------|
E|--------------------------------------|

G      Em         Bm
E a galera não vacilou
 C              G    Em
Fez a poeira subir
               Am
Sem sair do compasso
         D7            G
Mais uma vez eu quero ouvir
   G                 D7
"Mandei meu cavaco chorar"

[solo]

E|--------------------------------|
B|--------------------------------|
G|--------4-4----4-4----55----55--|
D|------5----5-5----5-4----44----4|
A|--------------------------------|
E|--------------------------------|

 G        E7        Am
Se você aceitar o desafio
          D7                        G
Eu vou cantar um samba pra você dançar
              E7       Am
Esse swing provoca arrepio
             D7                 G
Pegue o cavaco o show vai começar

               Em     Bm      C   D    G
Vou pedir pra você vibrarr (vibrar, vibrar)
G              Em     Bm
Vou pedir pra você mandar
 Am     D7           G
Mandar meu cavaco chorar
                           G D7
"Mandei meu cavaco chorar"

[solo]

E|--------------------------------------|
B|--------------------------------------|
G|-----------4-----4-4------------------|
D|-------------5-5-----5-5-4------------|
A|--------------------------------------|
E|--------------------------------------|

G      Em         Bm
E a galera não vacilou
 C              G    Em
Fez a poeira subir
               Am
Sem sair do compasso
         D7            G
Mais uma vez eu quero ouvir
   G                 D7
"Mandei meu cavaco chorar"
Composição de Duller / Fábio Alcântara / Tonho Copque / Xandy
53.019 exibições
    • ½ Tom
    • A
    • Bb
    • B
    • C
    • Db
    • D
    • Eb
    • E
    • F
    • F#
    • G
    • Ab
  • Adicionar à lista

    0 comentários

    Ver todos os comentários

    Conseguiu tocar?

    3 Tocaram 0 Ainda não

    Grave um vídeo tocando Desafio e nos envie!

    00:00 / 00:00
    Outros vídeos desta música
    Repetir Qualidade Automático
    Outros vídeos desta música
    00:00 / 00:00
    Automático

    Cifra Club Pro

    Aproveite o Cifra Club com benefícios exclusivos e sem anúncios
    Cifra Club Pro
    Aproveite o Cifra Club com benefícios exclusivos e sem anúncios
    OK