Cifra Club

Black Friday Cifra Club

Ceia do Senhor

Harpa Cristã

Cifra: Principal (violão e guitarra)
tom: F
E|---------5-|-5-------5-|-3-------3-|-1-------1-|-1-------1-|-1-------1-|
B|---------6-|-6---6---6-|-5---5---5-|-1-------4-|-3---3---3-|-1---1---1-|
G|---------5-|-5---5---5-|-5---5---3-|-2-------2-|-3---3---3-|-2---2---2-|
D|-----------|-----7-----|-----5-----|-3-------3-|-----3-----|-3---3---3-|
A|---------8-|-8-------8-|-3-------3-|-----------|-1-------1-|-----------|
E|-----------|-----------|-----------|-----------|-----------|-----------|

E|-0----------|------------|---------8--|-0----------|---------10-|---------6-|
B|-1-------8--|-8-------8--|-----10-----|-13------11-|-10--13-----|-13--10--6-|
G|-0-------9--|-9---9------|-10--10--10-|-0---12--12-|-10------10-|-10------7-|
D|---------10-|-10--10--10-|-10--10-----|-----10--10-|-10---------|-----10----|
A|-3----------|-----10--13-|-12------12-|------------|-----12--13-|-12--------|
E|---------8--|-8-------8--|-13------13-|-8-------8--|-13------13-|-13------6-|

E|-5-------3-|-1--------|
B|-6---6---1-|-1--------|
G|-5---5---3-|-2--------|
D|-----7-----|-3--------|
A|---------3-|----------|
E|-8---------|-1--------|

00:00 / 00:00
Outros vídeos desta música
Repetir
Outros vídeos desta música
Compositor não encontrado.
Colaboração e revisão:
  • Helon Oliveira
50.364 exibições
    • ½ Tom
    • A
    • Bb
    • B
    • C
    • Db
    • D
    • Eb
    • E
    • F
    • F#
    • G
    • Ab
  • Adicionar à lista

    0 comentários

    Ver todos os comentários

    Entre para oCifra Club PRO

    Tenha acesso a benefícios exclusivos no App e no Site

    • Chega de anúncios

    • Prioridade de compra em lançamentos

    • Mais recursos no app do Afinador

    • Atendimento Prioritário

    • Descontos nos produtos Cifra Club

    • Ajude a produzir mais conteúdo

    00:00 / 00:00

    Cifra Club Pro

    Aproveite o Cifra Club com benefícios exclusivos e sem anúncios
    Cifra Club Pro
    Aproveite o Cifra Club com benefícios exclusivos e sem anúncios
    OK