Cifra Club

Aprenda

Abre o Coração

Harpa Cristã

Cifra: Principal (violão e guitarra)
Tom: Ab
E|---------------|-8----8--4----4-|---4----------|-4---4---8-8--|-6-------------|
B|-------------4-|-4----4-------4-|-6-6--6--4----|---------4-4--|-4-----------4-|
G|-------------5-|---------5------|-6----6--5----|-5---5--------|---------------|
D|-------------6-|-6----6-------6-|-6----6--6----|---------6-6--|-5-----------5-|
A|---------------|---------6------|-4----4-------|-6---6--------|-6-----------6-|
E|---------------|-4----4--4----8-|---------4----|-4---4--------|---------------|

E|-8----8--4----4-|---4----------|-4---4---6-6--|-4------------|-8-8-----4----|
B|-4----4-------4-|-6-6--6--4----|--------------|--------------|-4-4----------|
G|---------5------|-6----6--5----|-5---5---6-6--|-5------------|---------5----|
D|-6----6-------6-|-6----6--6----|-6---6---5-5--|-6------------|-6-6-----6----|
A|---------6------|-4----4-------|-8---8---6-6--|--------------|--------------|
E|-4----4--4----8-|---------4----|--------------|-4------------|-4-4-----4----|


E|-4-4----------|-----8---8---4-|-6-------------|-8----8--4----4-|---4----------|
B|-6-6-----6----|-4---4---4---4-|-4-----------4-|-4----4-------4-|-6-6--6--4----|
G|---------6----|-5-------------|-0-----------0-|---------5------|-6----6--5----|
D|-6-6-----6----|-6---6---6---6-|---------------|-6----6-------6-|-6----6--6----|
A|-4-4-----4----|---------------|-6-----------6-|---------6------|-4----4-------|
E|--------------|-4---4---4---8-|---------------|-4----4--4----8-|---------4----|

E|-4---4---6-6--|-4------------|
B|--------------|--------------|
G|-5---5---6-6--|-5------------|
D|-6---6---5-5--|-6------------|
A|-8---8---6-6--|--------------|
E|--------------|-4------------|
Colaboração e revisão:
  • Helon Oliveira
2.777 exibições
    • ½ Tom
    • A
    • Bb
    • B
    • C
    • Db
    • D
    • Eb
    • E
    • F
    • F#
    • G
    • Ab
  • Adicionar à lista

    0 comentários

    Mostrar mais comentários
    00:00 / 00:00
    outros vídeos desta música
    repetir qualidade Automático
    Outros vídeos desta música
    00:00 / 00:00
    Automático

    Cifra Club Pro

    Aproveite o Cifra Club com benefícios exclusivos e sem anúncios
    7 dias grátis
    Cifra Club Pro
    Aproveite o Cifra Club com benefícios exclusivos e sem anúncios
    7 dias grátis
    OK