Cifra Club

Black Friday Cifra Club

Amor Que Vence

Harpa Cristã

Cifra: Principal (violão e guitarra)
tom: Fm
E|--------------|--------------|---------------|---------------|--------------|
B|--------------|---------4----|-4-----------4-|-----6---8---9-|-9------------|
G|--------------|---------5----|-5-----------5-|-8---8---7---7-|-8------------|
D|--------------|---------6----|-6-----------6-|-10--10--6---6-|-10-----------|
A|--------------|--------------|---------------|-11--11--8---8-|-6------------|
E|--------------|---------4----|---------------|---------------|--------------|

E|--------------|----------------|---------6---8--|-11-----------|-9-------9----|
B|-8-------8----|-8-----------8--|-8---9---8---9--|-11-----------|-11-----------|
G|-8-------8----|-8-----------8--|-8---8---8---8--|-8------------|-8-------8----|
D|-8-------8----|-11----------11-|-11--10--8------|--------------|---------8----|
A|--------------|----------------|-------------11-|-10-----------|-10------10---|
E|-11------11---|----------------|----------------|--------------|--------------|

E|----------------|-0---0----------|--------------|---------4----|-4-----------4-|
B|-13----------13-|-13--11--9---8--|-11-----------|-9-------1----|-3-----------3-|
G|-8-----------8--|-0---0---9---9--|-10-----------|-10------1----|-3-------------|
D|-10----------10-|-10--10--10--10-|-10-----------|-10------3----|-------------3-|
A|-11----------11-|----------------|-8------------|-8------------|-1-----------1-|
E|----------------|---------8---8--|--------------|--------------|---------------|

E|-4---4---3---1-|---------------|--------------|-8------------|---------6----|
B|-3---3---3---3-|-4-----------6-|-8-------9----|-9------------|-8------------|
G|---------0---1-|-5-----------8-|-8-------8----|-8------------|-6------------|
D|-3---3---------|-6-----------6-|-8-------10---|--------------|--------------|
A|-1---1---1---1-|-6-----------6-|-6-------6----|-6------------|-6------------|
E|---------------|---------------|--------------|--------------|--------------|

E|-4------------|--------------|
B|--------------|--------------|
G|-5------------|--------------|
D|--------------|--------------|
A|--------------|--------------|
E|-4------------|--------------|

00:00 / 00:00
Outros vídeos desta música
Repetir
Outros vídeos desta música
Compositor não encontrado.
Colaboração e revisão:
  • Helon Oliveira
4.249 exibições
    • ½ Tom
    • Am
    • Bbm
    • Bm
    • Cm
    • C#m
    • Dm
    • Ebm
    • Em
    • Fm
    • F#m
    • Gm
    • G#m
  • Adicionar à lista

    0 comentários

    Ver todos os comentários

    Entre para oCifra Club PRO

    Tenha acesso a benefícios exclusivos no App e no Site

    • Chega de anúncios

    • Prioridade de compra em lançamentos

    • Mais recursos no app do Afinador

    • Atendimento Prioritário

    • Descontos nos produtos Cifra Club

    • Ajude a produzir mais conteúdo

    00:00 / 00:00

    Cifra Club Pro

    Aproveite o Cifra Club com benefícios exclusivos e sem anúncios
    Cifra Club Pro
    Aproveite o Cifra Club com benefícios exclusivos e sem anúncios
    OK