Cifra Club

Breve Ele Volta

Harpa Cristã

Cifra: Principal (violão e guitarra)
Tom: G
E|----------|------------|-10-------|----------|-10------10-|-10------0--|
B|-0--------|-0-------12-|----------|-7--------|------------|---------13-|
G|-0--------|-12------12-|-11-------|-7--------|-11------11-|-11------11-|
D|-12-------|-12------12-|-10-------|-10-------|-10------10-|-10------0--|
A|----------|-10------10-|-12-------|----------|-12------12-|------------|
E|----------|------------|----------|-10-------|------------|-10---------|

E|----------|----------|----------|------------|-10-------|----------|
B|-12-------|----------|-0--------|-0-------12-|----------|-7--------|
G|-12-------|----------|----------|-12------12-|-11-------|-7--------|
D|-12-------|----------|-12-------|-12------12-|-10-------|-10-------|
A|-10-------|----------|-10-------|-10------10-|-12-------|----------|
E|----------|----------|----------|------------|----------|-10-------|

E|-10---------|-0----------|-3--------|----------|
B|-----10--12-|-13--12--10-|-0--------|----------|
G|-11--11--11-|-11--11--11-|-0--------|----------|
D|-10--10--12-|-----12--10-|----------|----------|
A|------------|------------|----------|----------|
E|-10--10--10-|-10--10--10-|----------|----------|
exibições 3.375
Acordes para:
    Colaboração e revisão:
    • Helon Oliveira

    0 comentários

    mostrar mais comentários

    Conseguiu tocar?

    0 tocaram 0 ainda não

    Grave um vídeo tocando Breve Ele Volta e mande pra gente!

    00:00 / 00:00
    outros vídeos desta música
    repetir qualidade Automático
    Outros vídeos desta música
    00:00 / 00:00
    Automático
    OK