Cifra Club

Black Friday Cifra Club

Castelo Forte

Harpa Cristã

Cifra: Principal (violão e guitarra)
tom: G
E|-------------10-|-10--10--0---9--|-10-9-7-------10-|-9---7-------7--|
B|-------------7--|-7-------10--10-|----------10-----|-7-------10--0--|
G|----------------|-----7---6------|-7----9-7-6---7--|-----7---7------|
D|-------------7--|-7---7---7---7--|-9----6---7------|-7-------0------|
A|----------------|-----9-------9--|----9-7---0---9--|-9---10--9---9--|
E|-------------10-|-10-------------|-7------------7--|-------------11-|

E|-3-2-0-------10-|-10--10------9--|-10-9-7-------10-|-9---7-------7--|
B|-0---2-------7--|-7-------10--10-|----------10-----|-7-------10--0--|
G|-0---2-0-7------|-----7---7------|-7----9-7-6---7--|-----7---7------|
D|-2-----------7--|-7---7---11--7--|-9----6---7------|-7-------0------|
A|-----0---9------|-----9---12--9--|----9-7---0---9--|-9---10--9---9--|
E|---------10--10-|-10-------------|-7------------7--|-------------11-|

E|-3-2-0---------|-----7---5---0---|---------------|-5---5---7---9-|
B|-0---2---3---3-|-10--7---5---9---|-10------------|-5---7-------5-|
G|-0---2-0-------|-11--7---6-----7-|-6-----------7-|---------7-----|
D|-2-------4---4-|-0-----------9---|-7-----------0-|-7---7---5---5-|
A|-----0---5---5-|-12--------5-7---|-0-----------9-|-----5-------7-|
E|---------------|-----7---9-------|---------------|-9-------------|

E|-10----------9-|-10--9---7---7----|-5-----------7-|-7---5---7-----|
B|-7-----------7-|-7---7---7--------|-2-----------3-|-8---7---7---8-|
G|-------------6-|-------------9--7-|-2-----------6-|-7---7-5-----9-|
D|-7-------------|-9---8---9--------|---------------|---------9---9-|
A|---------------|-------------11---|---------------|-----5---6---7-|
E|-10----------6-|-7---9---10--12---|-5-----------3-|-7-------------|

E|-------------10-|-----7---5---7-|-3-2-0--------|
B|-7--------------|-----3---------|-0---2--------|
G|-6-----------7--|---------7---4-|-0---2-0------|
D|-8-----------9--|-----5---4---4-|-2-------12---|
A|-9--------------|---------5---6-|-----0---9----|
E|-------------7--|-2---3---------|---------10---|

00:00 / 00:00
Outros vídeos desta música
Repetir
Outros vídeos desta música
Composição de Dominio Publico
Colaboração e revisão:
  • Helon Oliveira
17.491 exibições
    • ½ Tom
    • A
    • Bb
    • B
    • C
    • Db
    • D
    • Eb
    • E
    • F
    • F#
    • G
    • Ab
  • Adicionar à lista

    0 comentários

    Ver todos os comentários

    Entre para oCifra Club PRO

    Tenha acesso a benefícios exclusivos no App e no Site

    • Chega de anúncios

    • Prioridade de compra em lançamentos

    • Mais recursos no app do Afinador

    • Atendimento Prioritário

    • Descontos nos produtos Cifra Club

    • Ajude a produzir mais conteúdo

    00:00 / 00:00

    Cifra Club Pro

    Aproveite o Cifra Club com benefícios exclusivos e sem anúncios
    Cifra Club Pro
    Aproveite o Cifra Club com benefícios exclusivos e sem anúncios
    OK