Cifra Club

Black Friday Cifra Club

Contentamento

Harpa Cristã

Cifra: Principal (violão e guitarra)
tom: G
E|-6----8---6-----------|------------------6---|-6----8---6-------------|
B|-8----9---8--8---6----|-6----4---6--8----8---|-8----9---8--8---6----6-|
G|-8----8---8--8---7-8--|-7----5---7--8--------|-8----8---8--8---7-8--5-|
D|-------------8---6-5--|-8----8---8--8--------|-------------8---6-5----|
A|-6----6---6--6-----6--|-------------6--------|-6----6---6--6----------|
E|-----------------6----|-6----6---6-----------|-----------------6-8--4-|

E|-3--------------------|------6-------------6--|-8----11--8--6--------|
B|-4---4-6--6-----------|-6--------6--8---9--8--|-9----9---9--8---8-6--|
G|-3---0-7--7--8--------|-7----7---7--8---10-8--|-8--------8--8---8-7--|
D|-------6--6--5--------|-8--------8--8---8-----|------10---------8-8--|
A|-------------6--------|------8------6---6--6--|-11---11--11-6---6----|
E|-6-----6--6-----------|-6----6---6------------|-------------------6--|

E|------8----------1----1-|-3-----1--1-----------|----------------------|
B|-11-------11-8---3-4--1-|-4---4-3--3-----------|----------------------|
G|-0--------0--8---1-0----|-3---0-1--1--0--------|----------------------|
D|-13---13--13-8----------|-------------13-------|----------------------|
A|------11---------1-3----|-1-----1--1-----------|----------------------|
E|-11---11--11-11-------4-|-------------11-------|----------------------|

00:00 / 00:00
Outros vídeos desta música
Repetir
Outros vídeos desta música
Compositor não encontrado.
Colaboração e revisão:
  • Helon Oliveira
1.037 exibições
    • ½ Tom
    • A
    • Bb
    • B
    • C
    • Db
    • D
    • Eb
    • E
    • F
    • F#
    • G
    • Ab
  • Adicionar à lista

    0 comentários

    Ver todos os comentários

    Entre para oCifra Club PRO

    Tenha acesso a benefícios exclusivos no App e no Site

    • Chega de anúncios

    • Prioridade de compra em lançamentos

    • Mais recursos no app do Afinador

    • Atendimento Prioritário

    • Descontos nos produtos Cifra Club

    • Ajude a produzir mais conteúdo

    00:00 / 00:00

    Cifra Club Pro

    Aproveite o Cifra Club com benefícios exclusivos e sem anúncios
    Cifra Club Pro
    Aproveite o Cifra Club com benefícios exclusivos e sem anúncios
    OK