Cifra Club

Aprenda

É o Nosso Lar

Harpa Cristã

Cifra: Principal (violão e guitarra)
Tom: F
E|-------------5-|-5----5--5---6-|-8-----------6-|-6----6--5---3-|-5-----------5-|
B|-------------6-|-6----6--6---5-|-6-----------5-|-5----5--6---5-|-6-----------6-|
G|-------------5-|-5----5--5---5-|-5-----------5-|-5----5--5---5-|-5-----------5-|
D|---------------|-------------5-|-7-----------5-|-5----5--------|---------------|
A|-------------8-|-8----8--8-----|---------------|---------8---3-|-8-----------8-|
E|---------------|---------------|---------------|---------------|---------------|

E|-5----5--5---5-|-5---0---1----3-|-3----3--1---0-|-1------------|
B|-6----6--6---6-|-6---8---3----3-|-3----3--1---1-|-1------------|
G|-5----5--5---5-|-5-------2----3-|-3----3--2---0-|-2------------|
D|---------------|-----7---0------|---------------|-3------------|
A|-8----8--8---8-|-8------------1-|-1----1--3---3-|--------------|
E|---------------|-----8----------|---------------|--------------|
Colaboração e revisão:
  • Helon Oliveira
479 exibições
    • ½ Tom
    • A
    • Bb
    • B
    • C
    • Db
    • D
    • Eb
    • E
    • F
    • F#
    • G
    • Ab
  • Adicionar à lista

    0 comentários

    Mostrar mais comentários
    00:00 / 00:00
    outros vídeos desta música
    repetir qualidade Automático
    Outros vídeos desta música
    00:00 / 00:00
    Automático

    Cifra Club Pro

    Aproveite o Cifra Club com benefícios exclusivos e sem anúncios
    7 dias grátis
    Cifra Club Pro
    Aproveite o Cifra Club com benefícios exclusivos e sem anúncios
    7 dias grátis
    OK