Cifra Club

Aprenda

Em Belém

Harpa Cristã

Cifra: Principal (violão e guitarra)
Tom: G
E|----------6--10-----3--|-5---------5-1--------|-10-10-8--6---5------8-8--|
B|-6---5-6---------11-4--|-4---------4-3--------|-11-11-10-8---6--8---5-6--|
G|-7-7-6-7--7--7---7--0--|-------------3--------|-----------------8--------|
D|-8---5-8-----8---8-----|-3---------3----------|---------------------5-7--|
A|---8------8--10--10-3--|-------------1--------|-8--8--9--10--5--6--------|
E|-6-6-6-6--6------------|-1-1-1-1-1-1----------|-6--6--6--6---7--8---8-8--|

E|-13--13-13-12-10-8--10-12-13--|-11---------10-8--6-8-10----|
B|-10--10-10-11-11-11-11-13-10--|-------8-10-10-10-6-6-6--6--|
G|------------------------------|----10------10-8--7-8----7--|
D|-10--10-10-8--7---------------|-10-7--8-10-------8-8-8--8--|
A|-----------8--8--10-8-----8---|-8--8--8-8--8--8------------|
E|-13--13-13-------8--8--8------|----------------------------|

E|-------------10--9--10--|---5-6-8-6-8-10-6-------11-|
B|-------------11--10-11--|-8----------------6--------|
G|------------------------|-5-5-5-0-0-0--------12--11-|
D|------------------------|-------------8----0-----10-|
A|-------------8---8--8---|-6-6-6-6-6-6----8---10-----|
E|-1-1-1-1-1-1-6---6--6---|-------------6--6-6-11--11-|

E|-10-13-10----------6----6---|
B|----11----13-10-13-3----3---|
G|-10----10-10-10-10-3----3---|
D|----------10-13-10----------|
A|-13-13-13-------------------|
E|-13-13-13-13-13-13-6----6---|
Colaboração e revisão:
  • Helon Oliveira
1.269 exibições
    • ½ Tom
    • A
    • Bb
    • B
    • C
    • Db
    • D
    • Eb
    • E
    • F
    • F#
    • G
    • Ab
  • Adicionar à lista

    0 comentários

    Mostrar mais comentários
    00:00 / 00:00
    outros vídeos desta música
    repetir qualidade Automático
    Outros vídeos desta música
    00:00 / 00:00
    Automático

    Cifra Club Pro

    Aproveite o Cifra Club com benefícios exclusivos e sem anúncios
    7 dias grátis
    Cifra Club Pro
    Aproveite o Cifra Club com benefícios exclusivos e sem anúncios
    7 dias grátis
    OK