Cifra Club

Fé Persistente

Harpa Cristã

Cifra: Principal
exibições 337
Tom: A
E|----------|----------|-----4---8-|-----6----|-4---------|----------|
B|----------|-----4----|-4-------4-|----------|-----6---4-|-----4----|
G|----------|-----5----|-5---5-----|-----6----|-5---6---5-|-----5----|
D|----------|-----6----|-6---6---6-|-----5----|-6---6---6-|-----6----|
A|----------|----------|-----------|-----6----|-8---4-----|----------|
E|----------|-----4----|-4---4---4-|----------|---------4-|-----4----|

E|---------8--|----------|----------|----------|-8----------|----------|
B|-4---9------|-----9----|-11-------|-----14---|-----11--9--|-----11---|
G|-5----------|----------|-0--------|-----8----|-8---0------|-----0----|
D|-6---10--10-|-----10---|-13-------|-----8----|-----11--10-|-----13---|
A|-----11--11-|-----11---|----------|----------|-11------11-|----------|
E|-4-------13-|-----13---|-11-------|-----11---|-----11--13-|-----11---|

E|-8----------|----------|-----4---8-|-----6----|-4--------|----------|
B|-----9------|----------|-4-------4-|----------|----------|----------|
G|-8---8---10-|-----8----|-5---5-----|-----6----|-5--------|----------|
D|---------11-|-----8----|-6---6---6-|-----5----|-6--------|----------|
A|-11--11--11-|-----10---|-----8---6-|-----6----|----------|----------|
E|-----8---9--|-----11---|-4---------|----------|-4--------|----------|
Acordes para:
    Colaboração e revisão:
    • Helon Oliveira

    0 comentários

      mostrar mais comentários

      Conseguiu tocar?

      0tocaram0ainda não

      Grave um vídeo tocando Fé Persistente e mande pra gente!

      00:00 / 00:00
      outros vídeos desta música
      repetirqualidadeautomática
      Outro vídeos desta música
        00:00 / 00:00
        automática
        OK