Cifra Club

Aprenda

Graças Dou

Harpa Cristã

Cifra: Principal (violão e guitarra)
Quer fazer aulas de música com a gente? Responda essas perguntas
e nos ajude nesse projeto! →
tom: Gm
E|-------------|-6-----------|-------------|-5-----------|-------------|
B|---------6---|---------6-8-|-6---4---4---|------8--6---|---------6---|
G|---------7-7-|-7----7--7-8-|-7---5---5-5-|-5-------5-5-|-7-------7-7-|
D|-----------8-|------8--8-8-|-8---7-----7-|------8------|-8-------8-8-|
A|---------8-8-|-8----8------|-8---8---8-8-|-8----8--8-8-|-8-----------|
E|---------6-6-|-6----6--6-6-|-------------|---------5-5-|-6-------6-6-|

E|-10---6--8--6--|-6-------6---|--------------|-6-------6-5-|---------6---|
B|-6-------6--6--|-8---8---8-8-|-6----6--8-10-|-----------6-|-8----8--8-8-|
G|------7--------|-----8-----8-|-7----7--8-8--|-7-------7---|-8----8----8-|
D|-8----8--8--8--|-8---8---8-8-|-8----8--7----|---------8-8-|-8----8--8-8-|
A|---------------|-6---6---6-6-|-8----8--8-8--|-8---------5-|-6----6--6-6-|
E|-6----6--10-10-|-------------|--------------|-6-------6---|-------------|

E|-----------6-|-10---8--6--10-|---------10----|---------------|-----11--11-11-|
B|-8---6---6---|-6-------6--6--|-13---------13-|-11---13-11-10-|---------------|
G|-8---7---7-7-|------10-------|-10------10-10-|-10---10-11-11-|-12--12--12-12-|
D|-8---8---8-8-|-8----7--8--8--|---------------|---------10-10-|---------------|
A|-------------|------8--------|-12------12-12-|-13---13-------|-13--13--13-13-|
E|-6---6-------|---------10-6--|-13------13-13-|-10---10-10-10-|-11--11--11-11-|

E|-10------10-8--|-6--------|
B|---------------|-3--------|
G|-10---10-10-8--|-3--------|
D|------12-------|----------|
A|-13---13-12-12-|----------|
E|-13---13-13-13-|-6--------|

Composição de Alice O. Denyszcuk
Colaboração e revisão:
  • Helon Oliveira
15.118 exibições
    • ½ Tom
    • Am
    • Bbm
    • Bm
    • Cm
    • C#m
    • Dm
    • Ebm
    • Em
    • Fm
    • F#m
    • Gm
    • G#m
  • Adicionar à lista

    0 comentários

    Ver todos os comentários
    00:00 / 00:00
    Outros vídeos desta música
    Repetir Qualidade Automático
    Outros vídeos desta música
    00:00 / 00:00
    Automático

    Cifra Club Pro

    Aproveite o Cifra Club com benefícios exclusivos e sem anúncios
    Cifra Club Pro
    Aproveite o Cifra Club com benefícios exclusivos e sem anúncios
    OK