Cifra Club

Aprenda

Manso e Suave

Harpa Cristã

Cifra: Principal (violão e guitarra)
Tom: Ab
E|-8-6-4-4-3-4-6---------|-4-4-4-8--6-4-6--------|-8-6-4-4---4-6-4-------|
B|-4-----4-2-1---9-6-6-4-|-4-4-4------3-4--------|-4-----4-8-------6-6-4-|
G|---6-5-------6-6-6-6-5-|-5-5-5-7--7-3-0--------|---6-5---6-5-6-6-6-6-5-|
D|-6-6-6-6-1-1-----6-6-6-|-6-6-6-6--6-3----------|-6-6-6-6-----3-3-6-6-6-|
A|---------1---8-8-------|-------8--8---6--------|---------6-6-4-4-4-----|
E|-4-4-4-8---4-9-9-9-4-4-|-----------------------|-4-4-4-8-6-4-------4-4-|

E|-----9-8--4-4-4----------|-6--------8------6-8--|-6-6----8--8---10-11--10-9---|
B|-9-9-6----1-2-1--------4-|-----8-8-----9---8-9--|-8-8-11-10-10--9--8---9--11--|
G|-8-8---8--1-0-1----------|-----6-6--8--5---8-8--|-8-8-0--8--8-------------8---|
D|-6-6-6-6--1-1------------|-------------------6--|-8-8-13--------8--8---8------|
A|-------6-----------------|-----6-6---------6----|--------8--8----------8--10--|
E|-8-8-9--------4----------|----------------------|------------------11---------|

E|-8-6-4-4-3-4-6---------|-4-4-9--8--------4--------|----------------------|
B|-4-----4-2-1---9-6-6-4-|-4-4-------9--11-1--------|----------------------|
G|---6-5-------6-6-6-6-5-|-----10-8-----0--1--------|----------------------|
D|-6-6-6-6-1-1-----6-6-6-|-6-6-------10-11----------|----------------------|
A|---------1---8-8-------|-----11-11-11-------------|----------------------|
E|-4-4-4-8---4-9-9-9-4-4-|-8-8-9--11-11-11-4--------|----------------------|
Colaboração e revisão:
  • Helon Oliveira
4.830 exibições
    • ½ Tom
    • A
    • Bb
    • B
    • C
    • Db
    • D
    • Eb
    • E
    • F
    • F#
    • G
    • Ab
  • Adicionar à lista

    0 comentários

    Mostrar mais comentários
    00:00 / 00:00
    outros vídeos desta música
    repetir qualidade Automático
    Outros vídeos desta música
    00:00 / 00:00
    Automático

    Cifra Club Pro

    Aproveite o Cifra Club com benefícios exclusivos e sem anúncios
    7 dias grátis
    Cifra Club Pro
    Aproveite o Cifra Club com benefícios exclusivos e sem anúncios
    7 dias grátis
    OK