Cifra Club

Método de Deus

Harpa Cristã

Cifra: Principal (violão e guitarra)
tom: F
E|-----------------------|-5-------5--------5--3-|-1-------------------5-|
B|-----------------------|-------------8---------|-----------------------|
G|---------------------5-|-5-------5--------5--3-|-2-------3---2-------5-|
D|---------------------7-|-------------8-------2-|-----------------------|
A|---------------------8-|-8-------8---7----7--3-|-3-------5---3-------8-|
E|-----------------------|-------------8----8----|-1---------------------|

E|-8-------------------8-|-8-----------5---------|-5-------5--------5--3-|
B|-------------8---------|-6-----------6---------|-------------8---------|
G|-9-----------9-------9-|-------------5-------5-|-5-------5--------5--3-|
D|-------------8-------8-|-7-------------------7-|-------------8-------2-|
A|-10--------------------|-8-----------8-------8-|-8-------8---7----7--3-|
E|-8-----------8-------8-|-----------------------|-------------8----8----|

E|-1-------------------5-|-8--------------------|----------------------|
B|-----------------------|----------------------|----------------------|
G|-2-------3---2-------2-|-------------9--------|-10-------------------|
D|-----------------------|-10----------8--------|-7--------------------|
A|-3-------5---3---------|----------------------|-8--------------------|
E|-1---------------------|-------------8--------|----------------------|

00:00 / 00:00
Outros vídeos desta música
Repetir
Outros vídeos desta música
Compositor não encontrado.
Colaboração e revisão:
  • Helon Oliveira
696 exibições
    • ½ Tom
    • A
    • Bb
    • B
    • C
    • Db
    • D
    • Eb
    • E
    • F
    • F#
    • G
    • Ab
  • Adicionar à lista

    0 comentários

    Ver todos os comentários

    Entre para oCifra Club PRO

    Tenha acesso a benefícios exclusivos no App e no Site

    • Chega de anúncios

    • Prioridade de compra em lançamentos

    • Mais recursos no app do Afinador

    • Atendimento Prioritário

    • Descontos nos produtos Cifra Club

    • Ajude a produzir mais conteúdo

    00:00 / 00:00

    Cifra Club Pro

    Aproveite o Cifra Club com benefícios exclusivos e sem anúncios
    Cifra Club Pro
    Aproveite o Cifra Club com benefícios exclusivos e sem anúncios
    OK