Cifra Club

Oh! Que Glória

Harpa Cristã

Cifra: Principal
exibições 860
Tom: D
E|------------------------|-----------------0------|------------------------|
B|-----------------0---0--|-12----------12--13--12-|-12------0-------0---12-|
G|-----------------0---12-|-12----------12--12--12-|-12------12------12--12-|
D|-----------------12--12-|-12----------12------12-|-12------------------9--|
A|---------------------10-|-10----------10--10--10-|-10------10-------------|
E|------------------------|------------------------|-----------------12--12-|

E|-5---------------------|-5-------3--------------|-----------------0------|
B|-5-----------7---5---7-|-----------------0---0--|-12----------12--13--12-|
G|-5-----------5---5---5-|-5-------4-------0---12-|-12----------12--12--12-|
D|-------------7---5---7-|-4-------5-------12--12-|-12----------12------12-|
A|-------------5---5---5-|---------------------10-|-10----------10--10--10-|
E|-5---------------------|-3----------------------|------------------------|

E|------------------------|-------------0---2---5-|-3---------------------|
B|-12------0-------0---12-|-10----------2---1-----|-0---------------3---3-|
G|-12------12------12--0--|-0-----------0---2---5-|-0---------------------|
D|-12------------------12-|-11--------------0---0-|-----------------0---0-|
A|-10------10-------------|-0-----------0-------9-|-----------------------|
E|-----------------12--12-|-----------------------|-3---------------------|

E|-8-----------5---2-----|-7-------3-------7---7-|-7-----------5---------|
B|---------------------3-|-0---------------3---3-|-----------------8---5-|
G|-5-----------2---------|-----------------------|-6---------------5---5-|
D|-----------------4---0-|---------5-------5---5-|-5-------------------5-|
A|-----------------------|-----------------------|-------------9---7-----|
E|-----------------------|-----------------3---3-|-5---------------5---5-|

E|------------------------|-----------------0------|------------------------|
B|-----------------0---0--|-12----------12--13--12-|-12------0----0--0---12-|
G|-7---------------0---12-|-12----------12--12--12-|-12------12---12-12--0--|
D|-0---------------12--12-|-12----------12------12-|-12------------------12-|
A|-9-------------------10-|-10----------10--10--10-|-10---------------------|
E|------------------------|------------------------|--------------12-12--12-|

E|-------------0---2---5-|-3---------------------|-8-----------5---2-----|
B|-10----------2---1-----|-0---------------3---3-|---------------------3-|
G|-0-----------0---2---5-|-0---------------------|-5-----------2---------|
D|-11--------------0---0-|-----------------0---0-|-----------------4---0-|
A|-0-----------0-------9-|-----------------------|-----------------------|
E|-----------------------|-3---------------------|-----------------------|

E|-7-------3-------7---7-|-7-----------5---------|------------------------|
B|-0---------------3---3-|-----------------8---5-|-----------------0---0--|
G|-----------------------|-6---------------5---5-|-7---------------0---12-|
D|---------5-------5---5-|-5-------------------5-|-0---------------12--12-|
A|-----------------------|-------------9---7-----|-9-------------------10-|
E|-----------------3---3-|-5---------------5---5-|------------------------|

E|-----------------0------|------------------------|-------------0---2---5-|
B|-12----------12--13--12-|-12------0----0--0---12-|-10----------2---1-----|
G|-12----------12--12--12-|-12------12---12-12--0--|-0-----------0---2---5-|
D|-12----------12------12-|-12------------------12-|-11--------------0---0-|
A|-10----------10--10--10-|-10---------------------|-0-----------0-------9-|
E|------------------------|--------------12-12--12-|-----------------------|

E|-3--------------------|
B|-0--------------------|
G|-0--------------------|
D|----------------------|
A|----------------------|
E|-3--------------------|
Acordes para:
    Colaboração e revisão:
    • Helon Oliveira

    0 comentários

      mostrar mais comentários

      Conseguiu tocar?

      0tocaram0ainda não

      Grave um vídeo tocando Oh! Que Glória e mande pra gente!

      00:00 / 00:00
      outros vídeos desta música
      repetirqualidadeautomática
      Outro vídeos desta música
        00:00 / 00:00
        automática
        OK