Cifra Club

Oração Dominical

Harpa Cristã

Cifra: Principal (violão e guitarra)
Selo Cifra Club: esta cifra foi revisada para atender aos critérios oficiais da nossa Equipe de Qualidade.
tom: C
E|-5-------5---5-|-6-------5---8-|-8-------6----|-5------------|-6-------6---6-|
B|-6-------6---6-|-6-------------|-8-------5----|-6------------|-5-------8---5-|
G|-5-------5---5-|-7-------5-----|-0-------5----|-5------------|-5-------5---5-|
D|---------------|-------------7-|--------------|--------------|---------------|
A|-8-------8---8-|-8-------8-----|-7-------7----|-8------------|---------7-----|
E|---------------|---------------|---------8----|--------------|-8-----------8-|

E|-5-----------5-|-7-------7----|-8------------|-8-------8---6-|-5------------|
B|-6-----------6-|-6-------6----|-5------------|-6-------8---5-|-6-------6----|
G|-5-----------5-|-7-------7----|-5------------|---------0---5-|-5-------5----|
D|---------------|---------5----|--------------|-7-------------|---------7----|
A|-8-----------8-|-5------------|--------------|-8-------7-----|-8-------8----|
E|---------------|--------------|-8------------|-------------8-|--------------|

E|---------0---5-|-6------------|-5-------10--10-|-8-------5----|---------3----|
B|-6---6---8---6-|-8------------|-6-------6---6--|-6------------|-6-------5----|
G|---------0---5-|-5------------|-5--------------|---------5----|-5-------3----|
D|-8---7---10----|--------------|---------8---8--|-7-------7----|-7------------|
A|-------------8-|-7------------|-8--------------|-8-------8----|---------3----|
E|---------------|--------------|---------6---10-|--------------|-8------------|

E|--------------|--------------|
B|-6------------|--------------|
G|-5------------|--------------|
D|-7------------|--------------|
A|-8------------|--------------|
E|--------------|--------------|

Outros vídeos desta música
    1.694 exibições
      • ½ Tom
      • A
      • Bb
      • B
      • C
      • Db
      • D
      • Eb
      • E
      • F
      • F#
      • G
      • Ab
    • Adicionar à lista

    Afinação da cifra

    Afinador online

      0 comentários

      Ver todos os comentários

      Entre para o Cifra Club PRO

      Tenha acesso a benefícios exclusivos no App e no Site

      • Chega de anúncios

      • Badges exclusivas

      • Mais recursos no app do Afinador

      • Atendimento Prioritário

      • Aumente seu limite de lista

      • Ajude a produzir mais conteúdo

      Cifra Club Pro

      Aproveite o Cifra Club com benefícios exclusivos e sem anúncios
      Cifra Club Pro
      Aproveite o Cifra Club com benefícios exclusivos e sem anúncios
      Ops (: Contenido disponible sólo en portugués.
      OK