Cifra Club

Aprenda

Quádruplo Amém

Harpa Cristã

Cifra: Principal (violão e guitarra)
Tom: Em
E|-3-------2---0-|--------------|-5-------3---2-|-0------------|-8---7---0-----|
B|-3-------2-----|-3------------|-4-------------|--------------|-8---7---10--8-|
G|-4-------2---0-|--------------|---------4---2-|-0------------|-9---7---------|
D|---------------|-4------------|-4-------------|---------0----|---------10----|
A|---------0-----|-5-------3----|-2-------------|-7------------|---------------|
E|-3-------------|--------------|---------------|--------------|-8-------------|

E|-------------7-|-10----------8-|-7------------|--------------|
B|-7-------8-----|-8-------7-----|-3------------|--------------|
G|-7-------------|-----9---7-----|--------------|--------------|
D|---------9-----|-7-------------|--------------|--------------|
A|---------------|---------------|--------------|--------------|
E|-10------------|-10------------|-3------------|--------------|
Colaboração e revisão:
  • Helon Oliveira
963 exibições
    • ½ Tom
    • Am
    • Bbm
    • Bm
    • Cm
    • C#m
    • Dm
    • Ebm
    • Em
    • Fm
    • F#m
    • Gm
    • G#m
  • Adicionar à lista

    0 comentários

    Mostrar mais comentários
    00:00 / 00:00
    outros vídeos desta música
    repetir qualidade Automático
    Outros vídeos desta música
    00:00 / 00:00
    Automático

    Cifra Club Pro

    Aproveite o Cifra Club com benefícios exclusivos e sem anúncios
    7 dias grátis
    Cifra Club Pro
    Aproveite o Cifra Club com benefícios exclusivos e sem anúncios
    7 dias grátis
    OK