Cifra Club

Medicine

Harry Styles

Cifra: Principal (violão e guitarra)
Tom: C#m
[Intro]

E|---------------------------------------------------------------------------------------------------|
B|---------------------------------------------------------------------------------------------------|
G|---------------------------------------------------------------------------------------------------|
D|---------------------------------------------------------------------------------------4---2~------|
A|2h4-4-4---4-2---4-4---4--2h4-4-4---4-2h4-4-4---4--2h4-4-4---4-2h4-4-4---4--2h4-4-4---2-------------|
E|-------------------------------------------------------------------------------------------------4-|

E|---------------------------------------------------------------------------------------------------|
B|---------------------------------------------------------------------------------------------------|
G|---------------------------------------------------------------------------------------------------|
D|-------------------------------------2-------------------------------------------------2-----------|
A|2h4-4-4---4-2---4-4---4--2h4-4-4---4-----4--------2h4-4-4---4-2---4-4---4--2h4-4-4---4-----4-------|
E|---------------------------------------------4-------------------------------------------------4---|

E|---------------------------------------------------------------------------------------------------|
B|---------------------------------------------------------------------------------------------------|
G|---------------------------------------------------------------------------------------------x-----|
D|-----------------------------------------2~--------------------------------------------------x-----|
A|---------------------------------------------------------------------------------------------x-----|
E|0h2-2-2---2-0h2-2-2---2--0h2-2-2---2-0------------0h2-2-2---2-0h2-2-2b3~---------------------------|

C#m
Here to take my medicine, take my medicine, treat you like a gentleman
F#5
Give me that adrenaline, that adrenaline, think I'm gonna stick with you
C#m
Here to take my medicine, take my medicine, rest it on your fingertips
           F#5
Up to your mouth, feeling it out, feeling it out

[Pré Refrão]

C#m        B                 F#/A#           A
   I had a few, got drunk on you and now I'm wasted
C#m           B                F#/A#            F#5
   And when I sleep, I'm gonna dream of how you

[Refrão]

C#m          B                      F#/A#                       F#5
   If you go out tonight, I'm going out 'cause I know you're persuasive
C#m            B                     F#/A#              F#5
   You got the salt and I got me an appetite, now I can taste it
C#m                  B                     F#/A# F#5
   You get me dizzy, oh, you get me dizzy,         la-la-la la-la
C#m                  B                     F#/A# F#5
   You get me dizzy, oh, you get me dizzy, oh

C#m
Tingle running through my blood, fingers to my toes, tingle running through my bones
             F#5
Boys and the girls are here, I mess around with him, and I'm okay with it

[Pré Refrão]

C#m           B               F#/A#       A
   I'm coming down, I figured out I kinda like it
C#m           B                F#/A#            F#5
   And when I sleep, I'm gonna dream of how you

[Refrão]

C#m          B                      F#/A#                       A
   If you go out tonight, I'm going out 'cause I know you're persuasive
C#m            B                     F#/A#              E
   You got the salt and I got me an appetite, now I can taste it
C#m                  B                     F#/A# A
   You get me dizzy, oh, you get me dizzy, oh,     la-la-la la-la
C#m                  B                     F#/A# E
   You get me dizzy, oh, you get me dizzy, oh

[Ponte] F#5
        F#5  G5  G#5
        A5
        A5  A#5  B5
        C5  C#m

[Pré Refrão]

C#m        B                 F#/A#           A
   I had a few, got drunk on you and now I'm wasted

[Refrão]

C#m          B                      F#/A#                       F#5
   If you go out tonight, I'm going out 'cause I know you're persuasive
C#m            B                     F#/A#              F#5
   You got the salt and I got me an appetite, now I can taste it
C#m                  B                     F#/A# F#5
   You get me dizzy, oh, you get me dizzy,         la-la-la la-la
C#m                  B                     F#/A# F#5
   You get me dizzy, oh, you get me dizzy, oh

[Primeira Parte]

E|---------------------------------------------------------------------------------------------------|
B|---------------------------------------------------------------------------------------------------|
G|---------------------------------------------------------------------------------------------------|
D|-------------------------------------2-------------------------------------------------2-----------|
A|2h4-4-4---4-2---4-4---4--2h4-4-4---4-----4--------2h4-4-4---4-2---4-4---4--2h4-4-4---4-----4-------|
E|---------------------------------------------4-------------------------------------------------4---|

E|---------------------------------------------------------------------------------------------------|
B|---------------------------------------------------------------------------------------------------|
G|---------------------------------------------------------------------------------------------------|
D|-------------------------------------2-------------------------------------------------2-----------|
A|2h4-4-4---4-2---4-4---4--2h4-4-4---4-----4--------2h4-4-4---4-2---4-4---4--2h4-4-4---4-----4-------|
E|---------------------------------------------4-------------------------------------------------4---|

E|---------------------------------------------------------------------------------------------------|
B|---------------------------------------------------------------------------------------------------|
G|---------------------------------------------------------------------------------------------------|
D|-----------------------------------------2~--------------------------------------------------------|
A|---------------------------------------------------------------------------------------------------|
E|0h2-2-2---2-0h2-2-2---2--0h2-2-2---2-0------------0h2-2-2---2-0h2-2-2b3~---------------------0-----|

[Pré Refrão]

E|---------------------------------------------------------------------------------------------------|
B|---------------------------------------------------------------------------2-----------------------|
G|---------------------------------------------------------------------------2-----------------------|
D|---------------------------------------------------------------------------2-----------------------|
A|4~-----------------------2~-----------------------1~-----------------------0-----------------------|
E|---------------------------------------------------------------------------------------------------|

[Refrão]

E|---------------------------------------------------------------------------------------------------|
B|5------------------------4-------------------------------------------------------------------------|
G|6------------------------4------------------------3------------------------------------------------|
D|6------------------------4------------------------4------------------------4---4-4---4-4---4-4---4-|
A|4------------------------2------------------------1~-----------------------4---4-4---4-4---4-4---4-|
E|---------------------------------------------------------------------------0h2-2-2---2-0h2-2-2---2-|

E|---------------------------------------------------------------------------------------------------|
B|---------------------------------------------------------------------------------------------------|
G|---------------------------------------------------------------------------------------------------|
D|---------------------------------------------------------------------------------------4-----2-----|
A|4~-----------------------2~-----------------------1~-------------------------------2---------------|
E|---------------------------------------------------------------------------0--/2-------------------|

[Ponte]

E|---------------------------------------------------------------------------------------------------|
B|---------------------------------------------------------------------------------------------------|
G|---------------------------------------------------------------------------------------------------|
D|---------------------------------------------------------------------------------------------------|
A|---------------------------------------------------------------------------------------------------|
E|2-------------------------------------2---3---4---5------------------------------------5---6---7---|

E|---------------------------------------------------------------------------------------------------|
B|--------------------------------------------------5------------------------------------------------|
G|--------------------------------------------------6------------------------------------------------|
D|--------------------------------------------------6------------------------------------------------|
A|--------------------------------------------------4------------------------------------------------|
E|8--------------------------------------------------------------------------------------------------|
exibições 2.423
Acordes para:
    Composição: Harry Styles / Thomas Hull Colaboração e revisão:
    • ilana Rech
    • Julyana Oliveira

    0 comentários

    mostrar mais comentários

    Conseguiu tocar?

    0 tocaram 0 ainda não

    Grave um vídeo tocando Medicine e mande pra gente!

    00:00 / 00:00
    outros vídeos desta música
    repetir qualidade Automático
    Outros vídeos desta música
    00:00 / 00:00
    Automático
    OK