Cifra Club

404 not found

Hateen

Cifra: Principal (violão e guitarra)
exibições 6.320
Tom: G#
intro (just bass and drums)
"... connections made.. feelings start to fade away..."


gtr 1

"...i'm feeling like i'm lost insiiiiide... myyyyseeelf..."
e----------------------------
B----------------------------
G--8----6--------------------
D--8----6--------------------
A--6----4---3-4-3-1-3-1------
E----------------------------


"... seems it's all you really want..."
e--------------------------
B--------------------------
G------------8--8>9>8--6---
D--3------6--8---------6---
A--3------6--6--6>7>6--4---
E--1------4----------------


"...seems it's all you really need..."
e-------------------
B-------------------
G------------8--6---
D--3---6-----8--6---
A--3---6-----6--4---
E--1---4------------


"... to increase hate.. sorrow.. pain and loneliness..."
e-------------------------------------------------
B-------------------------------------------------
G-------------------------------------------------
D--6-6-6-6---8-8-8-8---10-10-10-10--11-11-11-11---
A--6-6-6-6---8-8-8-8---10-10-10-10--11-11-11-11---
E--4-4-4-4---6-6-6-6---8--8--8--8---9--9--9--9----


"... then lost loves.. and lost friends.. will never come back again..."   "..my frieeend.."
e------------------------------/----------------------------------------------------------
B------------------------------/----------------------------------------------------------
G-----------8-8-8-8--6-6-6-6---/--8>10-10-10--8---8>10-10-10-8---8>10-10-10--8-8--10--8---
D--6-6-6-6--8-8-8-8--6-6-6-6---/----------------------------------------------------------
A--6-6-6-6--6-6-6-6--4-4-4-4---/--6>8--8--8---6---6>8--8--8--6---6>8--8--8---6-6--8---6---
E--4-4-4-4---------------------/----------------------------------------------------------

e--------------------------------------------------------------------
B--------------------------------------------------------------------
G--8>10-10-10-8---8>10-10-10-8---8>10-10-10-8--8--6------------------
D-----------------------------------------------------3--------------
A--6>8--8--8--6---6>8--8--8--6---6>8--8--8--6--6--4---3--------------
E-----------------------------------------------------1--(let ring)--


"...i'm feeling like i'm lost insiiiiide... myyyyseeelf..." (second time)
e----------------------------
B----------------------------
G--8----6--------------------
D--8----6--------------------
A--6----4---3-4-3-1-3-1------
E----------------------------


"agaaaaain...             ...MY FRIEND..."
e----------------------------------------------
B----------------------------------------------
G----------------8>10--8--6---------8--6--6>8--
D---------3--6----------------3--6--8--6-------
A---------3--6---6>8---6--4---3--6--6--4--4>6--
E---------1--4----------------1--4-------------


"..404 not found again..." (only bass and drums)


"404 not found again..."
e-------------------------------
B-------------------------------
G--8-8-8-8---6-6--5-5-----8-----
D--8-8-8-8----------------------
A--6-6-6-6---4-4--3-3-----6-----
E-----------------------(end)---


gtr 2
intro (just bass and drums)
"... connections made.. feelings start to fade away..."


"...i'm feeling like i'm lost insiiiiide... myyyyseeelf..."
e--------------
B--------------
G--8---10--6---
D--------------
A--6---8---4---
E--------------


"... seems it's all you really want..."
e--------------------
B--------------------
G----------8>10--6---
D------6-------------
A------6---6>8---4---
E--1---4-------------


"...seems it's all you really need..."
e--------------------
B--------------------
G----------8>10--8---
D------6-------------
A------6---6>8---6---
E--1---4-------------


"... to increase hate.. sorrow.. pain and loneliness..."
e-------------------------------------------------
B-------------------------------------------------
G-------------------------------------------------
D--6-6-6-6---8-8-8-8---10-10-10-10--11-11-11-11---
A--6-6-6-6---8-8-8-8---10-10-10-10--11-11-11-11---
E--4-4-4-4---6-6-6-6---8--8--8--8---9--9--9--9----


"... then lost loves.. and lost friends.. will never come back again..."     
e------------------------------/---------------------------
B------------------------------/---------------------------
G-----------8-8-8-8--6-6-6-6---/--------8>10---8-----------
D--6-6-6-6---------------------/--------------------(2x)---
A--6-6-6-6--6-6-6-6--4-4-4-4---/--------6>8----6-----------
E--4-4-4-4---------------------/--1--4---------------------


"...double clicking my emotions..."
e--------------------------------------
B--------------------------------------
G---------8>10--6---------------------------
D--3--6-------------3--6-------------------
A--3--6---6>8---4---3--6-----------------------
E--1--4-------------1--4-------------------


"...i'm feeling like i'm lost insiiiiide... myyyyseeelf..."
e--------------
B--------------
G--8---10--6---
D--------------
A--6---8---4---
E--------------


"agaaaaain...             ...MY FRIEND..."
e----------------------------------------------
B----------------------------------------------
G----------------8>10--8--6---------8--6--6>8--
D---------3--6----------------3--6--8--6-------
A---------3--6---6>8---6--4---3--6--6--4--4>6--
E---------1--4----------------1--4-------------


"..404 not found again..." (only bass and drums)


"404 not found again..." (only gtr 1 for a part)


and then..
"404 not found again..." (screamin')
e---------------------------------------------/------
B---------------------------------------------/------
G--8-8-8-8-8-8---6-6-6-6---10-10-10-10-10-10--/--8---
D---------------------------------------------/------
A--6-6-6-6-6-6---4-4-4-4---8--8--8--8--8--8---/--6---
E---------------------------------------------/(end)-   
Acordes para:
    Colaboração e revisão:
    • Rodrigo Dutra

    0 comentários

    mostrar mais comentários

    Conseguiu tocar?

    0 tocaram 0 ainda não

    Grave um vídeo tocando 404 not found e mande pra gente!

    00:00 / 00:00
    outros vídeos desta música
    repetir qualidade Automático
    Outros vídeos desta música
    00:00 / 00:00
    Automático
    OK