Cifra Club

Aprenda

Não Existe Adeus

Hateen

Cifra: Principal (violão e guitarra)
Tom: G
(intro / solo)

"agora já é tarde..." até o refrão...

E|----------------------------------------------------------------|
B|8-8-8-8-8-8-8-8-7-7-7-7-7-7-7-7-5-5-5-5-5-5-5-5-5-5-5-5-5-5-5-5-|
G|7-7-7-7-7-7-7-7-7-7-7-7-7-7-7-7-4-4-4-4-4-4-4-4-5-5-5-5-5-5-5-5-|
D|----------------------------------------------------------------|
A|----------------------------------------------------------------|
E|----------------------------------------------------------------|

G
Agora já é tarde
D
E você sabe muito bem
   Em
que não existe adeus
       C                      G
 enquanto um de nós ficar aqui
                       D
um tempo atras eu tentei
        Em                     C
te dizer o mesmo que você me diz agora
                    D
mas voce não me ouviu

(refrão)
D            Em
E nada vai mudar
            C
 nem mesmo se você quiser
D             Em
E nada vai ter fim
        C
 pelo menos não pra mim
D              Em                C           D
E nada vai trazer de volta o que a gente viveu
D            C
Não é facil assim
              G
Não pra mim

 G
Agora já é tarde
D
E você sabe muito bem
 Em
que não existe nada
         C                       G
que eu nao faria pra ter você aqui
                      D
um tempo atras eu pensei
        Em
que seria diferente mas
 C
diferente é você nao estar aqui...

(ponte)
E|--------5-5-7-7---------5-5-7-7---------5-5-7-7---------5-5-7-7-|
B|8-8-8-8---------7-7-7-7---------5-5-5-5---------5-5-5-5---------|
G|7-7-7-7-7-7-7-7-7-7-7-7-7-7-7-7-4-4-4-4-4-4-4-4-5-5-5-5-5-5-5-5-|
D|----------------------------------------------------------------|
A|----------------------------------------------------------------|
E|----------------------------------------------------------------|

(refrão)

Uooooo.....

(refrão)

(final)
Composição de Fabrizio Martinelli / Rodrigo Koala / Sonrisal / Xim
Colaboração e revisão:
  • frederico
  • André Olean
  • Filipe Neves
45.968 exibições
    • ½ Tom
    • A
    • Bb
    • B
    • C
    • Db
    • D
    • Eb
    • E
    • F
    • F#
    • G
    • Ab
  • Adicionar à lista

    0 comentários

    Mostrar mais comentários

    Conseguiu tocar?

    4 Tocaram 0 Ainda não

    Grave um vídeo tocando Não Existe Adeus e mande pra gente!

    00:00 / 00:00
    outros vídeos desta música
    repetir qualidade Automático
    Outros vídeos desta música
    00:00 / 00:00
    Automático

    Cifra Club Pro

    Aproveite o Cifra Club com benefícios exclusivos e sem anúncios
    7 dias grátis
    Cifra Club Pro
    Aproveite o Cifra Club com benefícios exclusivos e sem anúncios
    7 dias grátis
    OK