Cifra Club

Mi mejor canción

Hechizo

Cifra: Principal (violão e guitarra)
tom: Dm

E|--------------------------------------------------------------------------|
 |                                                                          |
 |                             L E E  E S T O                               |
E|--------------------------------------------------------------------------|
 |                                                                          |
 | Antes de copiar cada transcripción de ATAME a un archivo de texto, debes |
 | seleccionar la fuente tipográfica 'COURIER NEW' o 'LUCIDA CONGE  ', así  |
 | no se te moverán los acordes ni los punteos de su posición original y    |
 | podrás tocar la canción correctamente.                                   |
E|--------------------------------------------------------------------------|

E|------------------------------------|
                            |                                    |
                            |  *** E  MEJOR CANCIÓN DE AMOR ***  |
                            |  *********** HECHIZO ************  |
G|------------------------------------|

=INTRO (Vocal)=
  F                               Gm  
  JUNTO AL MAR... DIBUJARÉ EN A  AD NA...
         C    A#                    C 
  UN CORAZÓN...  CON TU NOMBD  Y EL MÍO...
  F                            Gm  
  BUSCARÉ... EN EL CIELO UNA ESTD LA ...
         C   A#                C       C7 
  Y BAJARÉ...   PARA TI A  MÁS BELA ...

=INTRO (Instrumental)= (Punteo en Guitarra)
        F                                                           Dm 
E|-------8-10-8-----------------| ---------------------------- -------------------------------
B|--10-11-------------10-11-10--| --10-10-8-10-10-8-10-11-10-- -------10-11-10----------------
G|---------------10-12----------| ---------------------------- --10-12------------9-10-12-10--
D|------------------------------| ---------------------------- -----------------12------------
A|------------------------------| ---------------------------- -------------------------------
E|------------------------------| ---------------------------- -------------------------------

                              Gm                    C       A#                     C 
E|------------------------| ------------------------------------------------------------
B|------------------------| ----11-11-11-11-11-11-10-8--------11-11-11-11-11-11-10-8----
G|--10-10-10-10-9-7-9-10--| ---------------------------9-----------------------------9--
D|------------------------| --12----------------------------12--------------------------
A|------------------------| ------------------------------------------------------------
E|------------------------| ------------------------------------------------------------

          F               C 
E|-----------------------------------|
B|--10-8-10-8------------------------|
G|-----------10-10--10-9-------------|
D|----------------------12-10-12-10--|
A|-----------------------------------|
E|-----------------------------------|

  F                               Gm  
  JUNTO AL MAR... DIBUJARÉ EN A  AD NA...
         C    A#                    C 
  UN CORAZÓN...  CON TU NOMBD  Y EL MÍO...
  F                            Gm  
  BUSCARÉ... EN EL CIELO UNA ESTD LA ...
        C    A#                C       C7 
  Y BAJARÉ...   PARA TI A  MÁS BELA ...

             Dm               Gm  
  Y TE DGA A RÉ... ALGUNA CARACOA ...
                         C     A#                C     C7 
  QUE SE ESCONDE EN A  ESPUMA...  C NDE ROMPE A  OA ...
       F                Gm  
  Y TE LLEVARÉ... EN E  BARCA A NAVEGAR...
       C               A#            C 
  Y TE CUBRIRÉ... DE BESOS DE LUNA Y MAR...
       F              Gm  
  TE DEDICARÉ... E  MEJOR CANCIÓN DE AMOR...
         C               A#         C     C7 
  Y TE ENTRÉGARÉ... E  VIDA, E  CORAZÓN...

**Se toca la INTRO instrumental**  'Hechizo... en manos del amor'

  F                               Gm  
  JUNTO AL MAR... DIBUJARÉ EN A  AD NA...
         C    A#                    C 
  UN CORAZÓN...  CON TU NOMBD  Y EL MÍO...
  F                            Gm  
  BUSCARÉ... EN EL CIELO UNA ESTD LA ...
        C    A#                C       C7 
  Y BAJARÉ...   PARA TI A  MÁS BELA ...

       F                Gm  
  Y TE LLEVARÉ... EN E  BARCA A NAVEGAR...
       C               A#            C 
  Y TE CUBRIRÉ... DE BESOS DE LUNA Y MAR...
       F              Gm  
  TE DEDICARÉ... E  MEJOR CANCIÓN DE AMOR...
         C               A#         C     C7 
  Y TE ENTRÉGARÉ... E  VIDA, E  CORAZÓN...

=INSTRUMENTAL= (Punteo en Guitarra)
        Dm                A#                  F                   C 
E|-----------------------------------------------------------------8----------|
B|----------------------------------------6-8-10-10-10--8-6----6-8---8-8-6-5--|
G|--7-9-10-10-10-9-7---7-9-10-10-10-9-7---------------------------------------|
D|----------------------------------------------------------------------------|
A|----------------------------------------------------------------------------|
E|----------------------------------------------------------------------------|
  Ay amooooor... ouh...  eh...

        Dm                A#                  F                   C 
E|-----------------------------------------------------------------8----------|
B|----------------------------------------6-8-10-10-10--8-6----6-8---8-8-6-5--|
G|--7-9-10-10-10-9-7---7-9-10-10-10-9-7---------------------------------------|
D|----------------------------------------------------------------------------|
A|----------------------------------------------------------------------------|
E|----------------------------------------------------------------------------|

             Dm               Gm  
  Y TE DGA A RÉ... ALGUNA CARACOA ...
                         C     A#                C     C7 
  QUE SE ESCONDE EN A  ESPUMA...  C NDE ROMPE A  OA ...
       F                Gm  
  Y TE LLEVARÉ... EN E  BARCA A NAVEGAR...
       C               A#            C 
  Y TE CUBRIRÉ... DE BESOS DE LUNA Y MAR...
       F              Gm  
  TE DEDICARÉ... E  MEJOR CANCIÓN DE AMOR...
         C               A#         C     C7 
  Y TE ENTRÉGARÉ... E  VIDA, E  CORAZÓN...

=FINAL=
        F                                                           Dm 
E|-------8-10-8-----------------| ---------------------------- -------------------------------
B|--10-11-------------10-11-10--| --10-10-8-10-10-8-10-11-10-- -------10-11-10----------------
G|---------------10-12----------| ---------------------------- --10-12------------9-10-12-10--
D|------------------------------| ---------------------------- -----------------12------------
A|------------------------------| ---------------------------- -------------------------------
E|------------------------------| ---------------------------- -------------------------------
     Ay amooooooor...
                              Gm                    C       A#                     C 
E|------------------------| ------------------------------------------------------------
B|------------------------| ----11-11-11-11-11-11-10-8--------11-11-11-11-11-11-10-8----
G|--10-10-10-10-9-7-9-10--| ---------------------------9-----------------------------9--
D|------------------------| --12----------------------------12--------------------------
A|------------------------| ------------------------------------------------------------
E|------------------------| ------------------------------------------------------------

          F               C                F 
E|----------------------------------------------|
B|--10-8-10-8-----------------------------------|
G|-----------10-10--10-9------------------------|
D|----------------------12-10-12-10---7-7| >>>10--
A|----------------------------------------------|
E|----------------------------------------------|

E|-------------------------------------------| F I N -------------------------------------------

 Aquí les van algunas indicaciones básicas para tocar la canción:
E|-----------------------------------------------------------------|
 |                                                                 |
 |      Para que el tema suene la raja te recomiendo ejecutar      |
 |  el acorde y los cambios de  acorde en el mismo momento en que  |
 |  aparecen,por eso logré que la ubicación de cada acorde sea la  |
 |  precisa, tal como puse los acordes sobre cada sílaba de verso  |
 |   y sobre cada punteo, así te será más fácil ubicar el acento   |
 | musical y además, obtendrás la armonía y melodía similares a la |
 |           vesión original de los Hechizo, disfrútala.           |
E|-----------------------------------------------------------------|
B|-----------------------------------|
  |                                   |    CUERDAS de la GUITARRA:
  | Clave Universal   Clave Americana |    E    A    D   G   B   E
  |                                   |    |    |    |   |   |   |
  |       C   ============== C        |    E    A    D   G   B   E 
  |       D   ============== D        |  Grave                  Agudo
  |       E   ============== E        |
  |       F   ============== F        |
  |       G   ============== G        |
  |       A   ============== A        |
  |       B   ============== B        |
E|-----------------------------------|

 (Acorde)     (Cuerdas)
    |        E A D G B E    Los números corresponden al traste de la guitarra
    |        | | | | | |    donde se pulsa la cuerda señalada, la letra'X'
    |        | | | | | |    significa que no se pulsa la cuerda indicada.
    |        | | | | | |

E|-----------------------------------------------------------|
 |                                                           |
 |     Equivalencia de notas sostenidas con notas bemoles    |
E|-----------------------------------------------------------|
 |                                                           |
 |   C#   =  Db   <------> ( Do  sostenido  =  Re  bemol )   |
 |   D#   =  Eb   <------> ( Re  sostenido  =  Mi  bemol )   |
 |   F#   =  Gb   <------> ( Fa  sostenido  =  Sol bemol )   |
 |   G#   =  Ab   <------> ( Sol sostenido  =  La  bemol )   |
 |   A#   =  Bb   <------> ( La  sostenido  =  Re  bemol )   |
E|-----------------------------------------------------------|
00:00 / 00:00
Outros vídeos desta música
Repetir
Outros vídeos desta música
Compositor não encontrado.
266 exibições
    • ½ Tom
    • Am
    • Bbm
    • Bm
    • Cm
    • C#m
    • Dm
    • Ebm
    • Em
    • Fm
    • F#m
    • Gm
    • G#m
  • Adicionar à lista

    0 comentários

    Ver todos os comentários

    Entre para oCifra Club PRO

    Tenha acesso a benefícios exclusivos no App e no Site

    • Chega de anúncios

    • Prioridade de compra em lançamentos

    • Mais recursos no app do Afinador

    • Atendimento Prioritário

    • Descontos nos produtos Cifra Club

    • Ajude a produzir mais conteúdo

    00:00 / 00:00

    Cifra Club Pro

    Aproveite o Cifra Club com benefícios exclusivos e sem anúncios
    Cifra Club Pro
    Aproveite o Cifra Club com benefícios exclusivos e sem anúncios
    OK