Cifra Club

Aprenda

Dr. Stein

Helloween

Cifra: Principal (violão e guitarra)
tom: D
intro
riff 1 repeat once and then twice for the first verse
E -----------------------------------------------------------------|
B -----------------------------------------------------------------|
G -----4-4-4-4-4-4-----------------------------------4-4-4-4-4-4-4-|
D -5/2-2-2-2-2-2-2-----4-4-4-4-4-4-----------------2-2-2-2-2-2-2-2-|
A -----------------5/2-2-2-2-2-2-2-3-2-3-2-3-2-3-5-----------------|
E -----------------------------------------------------------------|

second ending
E -----------------------------------------------------------------|
B -----------------------------------------------------------------|
G -----------------------------------------------------------------|
D -------------------------7---------------------------------------|
A -3-2-3-2-3-2-------2-2-2-5---------------------------------------|
E -------------3-2-0-0-0-0-----------------------------------------|

bridge  (riff 2)
E -----------------------------------------------------------------|
B -----5-----------------------------------------------------------|
G -4---4---7-------5--------5~-------------------------------------|
D -4---2---7---5---5---5----7~--------------------0-2-4-5----------|
A -2-------5---5---3---5----5~-------------------------------------|
E -------------3-------3-------------------------------------------|

E -----------------------------------------------------------------|
B -----5-----------------------------------------------------------|
G -4---4---7-------5---7--------------------------7-6-4-2----------|
D -4---2---7---5---5---7---5~---------------------5-4-2-0----------|
A -2-------5---5---3---5---5~--------------------------------------|
E -------------3-----------3~--------------------------------------|

chorus  (riff 3)
E -----------------------------------------------------------------|
B -----------------------------------------------------------------|
G -5--7--7-6-4-2--5--7--7-11-7~-5--7--7-6-4-2--5~--------7~--------|
D -5--7--5-4-2-0--5--7--5-9--5~-5--7--5-4-2-0--5~--------7~--------|
A -3--5-----------3--5----------3--5-----------3~--------5~--------|
E -----------------------------------------------------------------|

riff 4 2x(after this play riff 1 with the next verse using
            the second ending)
E -----------------------------------------------------------------|
B -----------------------------------------------------------------|
G --------------------------7~---------------------------7~--------|
D -9-7-9---------9--7-9-99--7~--9-7-9--------------------7~--------|
A -7-5-7---------7--5-7-77--5~--7-5-7--------------------5~--------|
E -------000-000----------------------000-000--3~-2-0--00----------|

riff 2(bridge)
riff 3(chorus)
riff 5 as follows (interlude into solo)
E -----------------------------------------------------------------|
B -----------------------------------------------------------------|
G -----------------------------------------------------------------|
D --------------------------------7--7--7--7--7--9-----------------|
A --------------------------------5--4--5--4--5--7-----------------|
E -0-000-000-000-000-000-000-000-----------------------------------|

solo 1
E -10~-----------10h12~--14h15p14p12----14h15p14p12h15-------------|
B -12~--12p10------------------------15----------------------------|
G ------------12---------------------------------------------------|
D -----------------------------------------------------------------|
A -----------------------------------------------------------------|
E -----------------------------------------------------------------|

E -14h15p14p12h15-14h15p14p12----12--------------------------------|
B ----------------------------15----15-14h15p14p12h----------------|
G --------------------------------------------------14-------------|
D -----------------------------------------------------------------|
A -----------------------------------------------------------------|
E -----------------------------------------------------------------|

E -----------------------------------------------------------------|
B -12-----------------------------------10h12~~--12p10-------------|
G ----14--12-14-11-12-------------9-12-----------------12----------|
D --------------------14-14-12-10----------------------------------|
A -----------------------------------------------------------------|
E -----------------------------------------------------------------|

E ----------15~-------21p19~------15~--14-15-14-12-10-12-10-8-10---|
B ----------15~-------------------15~------------------------------|
G -----------------------------------------------------------------|
D -9--9-9------9--9-9-------9--9-9---------------------------------|
A -7--7-7------7--7-7-------7--7-7---------------------------------|
E -----------------------------------------------------------------|

E -8-7-----9-------------------------------------------------------|
B -----9-9---8-7-8-10-8---7----------------------------------------|
G ----------------------9---9-7------------------------------------|
D ------------------------------9-7-9-7-9-7-5-7-5h7h9p7~\\/\/\/\---|
A -----------------------------------------------------------------|
E -----------------------------------------------------------------|

E -----------------------------------------------------------------|
B -----------12h13-12~---------------------------------------------|
G -----------------------------------------9-9-9-9-11-11-11-11-----|
D ---------------------9-9-9-9-12-12-12-12-------------------------|
A -2~~~/\/\/-------------------------------------------------------|
E -----------------------------------------------------------------|

E -------------------------10-10-10----------------10h12~-10---12--|
B -10-10-10-10-12-12-12-12----------12-12-12-12-12-----------------|
G -----------------------------------------------------------------|
D -----------------------------------------------------------------|
A -----------------------------------------------------------------|
E -----------------------------------------------------------------|

E -12h14~--12h14p12p10-12~-----------------------------------------|
B ---------------------------12-10-8-10-8--------------------------|
G ----------------------------------------9-7--11-9-7-9-7----------|
D --------------------------------------------------------10-7-10--|
A -----------------------------------------------------------------|
E -----------------------------------------------------------------|

E -----------------------------------------------------------------|
B -----------------------------------------------------------------|
G ---7-------------------------------------------------------------|
D -9---9-10-9-7----------------------------------------------------|
A --------------10-7-----------------------------------------------|
E -------------------10-8-10-8~------------------------------------|

solo 2
E -10h12-10h12-10h12-12p10--10-------------------------------------|
B ------------------------12---13h15p13p12-10h12p10------10h12-10~-|
G --------------------------------------------------12-9-----------|
D -----------------------------------------------------------------|
A -----------------------------------------------------------------|
E -----------------------------------------------------------------|

E -14----------12-14-15-15h17-15h17-15h17~-15--12-14-15-14h15p14---|
B -12-12-13-15-----------------------------------------------------|
G -----------------------------------------------------------------|
D -----------------------------------------------------------------|
A -----------------------------------------------------------------|
E -----------------------------------------------------------------|

E -12-10-12-10----10----10-10h12~-20-22~--20-20p19h20-22~----------|
B -------------13----13--------------------------------------------|
G -----------------------------------------------------------------|
D -----------------------------------------------------------------|
A -----------------------------------------------------------------|
E -----------------------------------------------------------------|

E -15-14-12-15-14-12-15-14-12-15-14-12-15-14-12-15-14-12--17~-19~--|
B -----------------------------------------------------------------|
G -----------------------------------------------------------------|
D -----------------------------------------------------------------|
A -----------------------------------------------------------------|
E -----------------------------------------------------------------|

E -19h20-19~-17~-15~-17-19-15-14-----------------------------------|
B -------------------------------17-16-17-16-12-13-10-12---12-13---|
G -------------------------------------------------------9---------|
D -----------------------------------------------------------------|
A -----------------------------------------------------------------|
E -----------------------------------------------------------------|

E -----------------------------------------------------------------|
B -----------------------------------------------------------------|
G -11-11h12~-11~-11h12~-11~-9~-7~-9~~------------------------------|
D ------------------------------------9~~--------------------------|
A -----------------------------------------------------------------|
E -----------------------------------------------------------------|

E -----------------------------------------------------------------|
B -----------------------------------------------------------------|
G -----------------------------------------------------------------|
D -----------------------------------------------------------------|
A -10-9-7-10-9-7-10-9-7-10-9-7-10-9-7~~----------------------------|
E -----------------------------------------------------------------|
Composição de Michael Weikath
25.463 exibições
    • ½ Tom
    • A
    • Bb
    • B
    • C
    • Db
    • D
    • Eb
    • E
    • F
    • F#
    • G
    • Ab
  • Adicionar à lista

    0 comentários

    Ver todos os comentários
    00:00 / 00:00
    Outros vídeos desta música
    Repetir Qualidade Automático
    Outros vídeos desta música
    00:00 / 00:00
    Automático

    Cifra Club Pro

    Aproveite o Cifra Club com benefícios exclusivos e sem anúncios
    Cifra Club Pro
    Aproveite o Cifra Club com benefícios exclusivos e sem anúncios
    OK