Cifra Club

Aprenda

If i could fly

Helloween

Cifra: Principal (violão e guitarra)
tom: G
Versão 1
-======-

Tuning: E 

Intro (Piano, depois isso): 

e|-----------------------------------------| 
B|-----------------------------------------| 
G|*------------------------------7-----7---| 
D|--7-------5-------2------------7-----7---| 
A|*-7-7-7-7-5-5-5-5-2-2-2-2------5-----5---| 
E|--5-5-5-5-3-3-3-3-0-0-0-0--0-0---0-0-----| 
* * * * 
e|-----------------------------------------| 
B|-----------------------------------------| 
G|-------------------------------9-----9-*-| 
D|--7-------5-------2------------9-----9---| 
A|--7-7-7-7-5-5-5-5-2-2-2-2------7-----7-*-| 
E|--5-5-5-5-3-3-3-3-0-0-0-0--0-0---0-0-----| 
* * * * 

(Actually, each chord is played 8 times, just listen to the song 
to get the rhythm :) 

Verse: 

e|-----------------------------------------| 
B|-----------------------------------------| 
G|-------------------------------7-----7---| 
D|--7-------5-------2------------7-----7---| 
A|--7-7-7-7-5-5-5-5-2-2-2-2------5-----5---| 
E|--5-5-5-5-3-3-3-3-0-0-0-0--0-0---0-0-----| 
* * * * 
e|-----------------------------------------| 
B|-----------------------------------------| 
G|-------------------------------9-----9---| 
D|--7-------5-------2------------9-----9---| 
A|--7-7-7-7-5-5-5-5-2-2-2-2------7-----7---| 
E|--5-5-5-5-3-3-3-3-0-0-0-0--0-0---0-0-----| 
* * * * 
e|-------------------------------------------------------------------------| 
B|-------------------------------------------------------------------------| 
G|-------------------------------7-----7-------------------------------7~--| 
D|--7-------5-------2------------7-----7---7-------5-------2-2-2-2-2-2-7~--| 
A|--7-7-7-7-5-5-5-5-2-2-2-2------5-----5---7-7-7-7-5-5-5-5-2-2-2-2-2-2-5~--| 
E|--5-5-5-5-3-3-3-3-0-0-0-0--0-0---0-0-----5-5-5-5-3-3-3-3-0-0-0-0-0-0-----| 
* * * * * * * * * 

Chorus 1: 

e|-----------------------------------------| 
B|-----------------------------------------| 
G|*------------------------------7-----7---| 
D|--7-------5-------2------------7-----7---| 
A|*-7-7-7-7-5-5-5-5-2-2-2-2------5-----5---| 
E|--5-5-5-5-3-3-3-3-0-0-0-0--0-0---0-0-----| 
* * * * 
e|-----------------------------------------| 
B|-----------------------------------------| 
G|-------------------------------9-----9-*-| 
D|--7-------5-------2------------9-----9---| 
A|--7-7-7-7-5-5-5-5-2-2-2-2------7-----7-*-| 
E|--5-5-5-5-3-3-3-3-0-0-0-0--0-0---0-0-----| 
* * * * 

Chorus 2: 

e|-----------------------------------------| 
B|-----------------------------------------| 
G|-------------------------------7-----7---| 
D|--7-------5-------2------------7-----7---| 
A|--7-7-7-7-5-5-5-5-2-2-2-2------5-----5---| 
E|--5-5-5-5-3-3-3-3-0-0-0-0--0-0---0-0-----| 
* * * * 
e|-----------------------------------------| 
B|-----------------------------------------| 
G|-------------------------------9-----9---| 
D|--7-------5-------2------------9-----9---| 
A|--7-7-7-7-5-5-5-5-2-2-2-2------7-----7---| 
E|--5-5-5-5-3-3-3-3-0-0-0-0--0-0---0-0-----| 
* * * * 
e|-------------------------------------------------------------------------| 
B|-------------------------------------------------------------------------| 
G|-------------------------------7-----7-------------------------------7~--| 
D|--7-------5-------2------------7-----7---7-------5-------2-2-2-2-2-2-7~--| 
A|--7-7-7-7-5-5-5-5-2-2-2-2------5-----5---7-7-7-7-5-5-5-5-2-2-2-2-2-2-5~--| 
E|--5-5-5-5-3-3-3-3-0-0-0-0--0-0---0-0-----5-5-5-5-3-3-3-3-0-0-0-0-0-0-----| 
* * * * * * * * * 

acordes do solo: 

e|-------------------------------------------------| 
B|-------------------------------------------------| 
G|-------------------------------------------------| 
D|--7-------75-3--------3/5-7-------75-3---------| 
A|--7-7-7-7-75-3-3-3-3--3/5-7-7-7-7-75-3-3-3-3---| 
E|--5-5-5-5-53-1-1-1-1--1/3-5-5-5-5-53-1-1-1-1---| 

e|----------------------------------------------------------| 
B|----------------------------------------------------------| 
G|------------------------------------------------5-5--7-7--| 
D|--7-------75-3--------3/5-7-------75-3--------5-5--7-7--| 
A|--7-7-7-7-75-3-3-3-3--3/5-7-7-7-7-75-3-3-3-3--3-3--5-5--| 
E|--5-5-5-5-53-1-1-1-1--1/3-5-5-5-5-53-1-1-1-1------------| 

"Bridge": 

e|---------------------------|---------------------------|---------| 
B|---------------------------|---------------------------|---------| 
G|---------------------------|---------------------------|---------| 
D|--7~-5~---3~-----------5~--|--7~-5~---3~--7-9-10-9-5~--|--7~-5~--| 
A|--7~-5~---3~-3-3-3-3-3-5~--|--7~-5~---3~--7-9-10-9-5~--|--7~-5~--| 
E|--5~-3~-0-1~-1-1-1-1-1-3~--|--5~-3~-0-1~--5-7-8--7-3~--|--5~-3~--| 
* * * * * * * 

Sequencia: 

Piano Intro 
Intro 
Verse 
Chorus 1 
Verse 
Chorus 2 
Solo 
Bridge 
Chorus 1 (Repeat 'til fade) 

______________________________________________________






Versão 2
-======-

Intro (Piano)

e|-8-7---8-7----------5-7------------------|
B|-----5-----5----8-5----------------------|
G|--------------7--------------------------|
D|-----------------------------------------|
A|-----------------------------------------|
E|-----------------------------------------|

e|-8-7---8-7----------5-7-8-10-12----------|
B|-----5-----5----8-5-------------12-13-15-|
G|--------------7--------------------------|
D|-----------------------------------------|
A|-----------------------------------------|
E|-----------------------------------------|


then piano and guitar come together;

e|-----------------------------------------|
B|-----------------------------------------|
G|*------------------------------7-----7---|
D|--7-------5-------2------------7-----7---|  
A|*-7-7-7-7-5-5-5-5-2-2-2-2------5-----5---|
E|--5-5-5-5-3-3-3-3-0-0-0-0--0-0---0-0-----|
                             * *   * *       
e|-----------------------------------------|
B|-----------------------------------------|
G|-------------------------------9-----9-*-| 
D|--7-------5-------2------------9-----9---|  
A|--7-7-7-7-5-5-5-5-2-2-2-2------7-----7-*-|
E|--5-5-5-5-3-3-3-3-0-0-0-0--0-0---0-0-----|
                             * *   * *

(Actually, each chord is played 8 times, just listen to the song 
to get the rhythm :)

Verse:

e|-----------------------------------------|
B|-----------------------------------------|
G|-------------------------------7-----7---|
D|--7-------5-------2------------7-----7---|  
A|--7-7-7-7-5-5-5-5-2-2-2-2------5-----5---|
E|--5-5-5-5-3-3-3-3-0-0-0-0--0-0---0-0-----|
                             * *   * *       
e|-----------------------------------------|
B|-----------------------------------------|
G|-------------------------------9-----9---| 
D|--7-------5-------2------------9-----9---|  
A|--7-7-7-7-5-5-5-5-2-2-2-2------7-----7---|
E|--5-5-5-5-3-3-3-3-0-0-0-0--0-0---0-0-----|
                             * *   * *
e|-------------------------------------------------------------------------|
B|-------------------------------------------------------------------------|
G|-------------------------------7-----7-------------------------------7~--|
D|--7-------5-------2------------7-----7---7-------5-------2-2-2-2-2-2-7~--|
A|--7-7-7-7-5-5-5-5-2-2-2-2------5-----5---7-7-7-7-5-5-5-5-2-2-2-2-2-2-5~--|
E|--5-5-5-5-3-3-3-3-0-0-0-0--0-0---0-0-----5-5-5-5-3-3-3-3-0-0-0-0-0-0-----|
                             * *   * *                       * * * * *

Chorus 1:

e|-----------------------------------------|
B|-----------------------------------------|
G|*------------------------------7-----7---|
D|--7-------5-------2------------7-----7---|  
A|*-7-7-7-7-5-5-5-5-2-2-2-2------5-----5---|
E|--5-5-5-5-3-3-3-3-0-0-0-0--0-0---0-0-----|
                             * *   * *       
e|-----------------------------------------|
B|-----------------------------------------|
G|-------------------------------9-----9-*-| 
D|--7-------5-------2------------9-----9---|  
A|--7-7-7-7-5-5-5-5-2-2-2-2------7-----7-*-|
E|--5-5-5-5-3-3-3-3-0-0-0-0--0-0---0-0-----|
                             * *   * *

Chorus 2: 

e|-----------------------------------------|
B|-----------------------------------------|
G|-------------------------------7-----7---|
D|--7-------5-------2------------7-----7---|  
A|--7-7-7-7-5-5-5-5-2-2-2-2------5-----5---|
E|--5-5-5-5-3-3-3-3-0-0-0-0--0-0---0-0-----|
                             * *   * *       
e|-----------------------------------------|
B|-----------------------------------------|
G|-------------------------------9-----9---| 
D|--7-------5-------2------------9-----9---|  
A|--7-7-7-7-5-5-5-5-2-2-2-2------7-----7---|
E|--5-5-5-5-3-3-3-3-0-0-0-0--0-0---0-0-----|
                             * *   * *
e|-------------------------------------------------------------------------|
B|-------------------------------------------------------------------------|
G|-------------------------------7-----7-------------------------------7~--|
D|--7-------5-------2------------7-----7---7-------5-------2-2-2-2-2-2-7~--|
A|--7-7-7-7-5-5-5-5-2-2-2-2------5-----5---7-7-7-7-5-5-5-5-2-2-2-2-2-2-5~--|
E|--5-5-5-5-3-3-3-3-0-0-0-0--0-0---0-0-----5-5-5-5-3-3-3-3-0-0-0-0-0-0-----|
                             * *   * *                       * * * * *

Solo Chords:
                             
e|-------------------------------------------------|
B|-------------------------------------------------|
G|-------------------------------------------------|
D|--7-------75-3--------3/5-7-------75-3---------|
A|--7-7-7-7-75-3-3-3-3--3/5-7-7-7-7-75-3-3-3-3---|
E|--5-5-5-5-53-1-1-1-1--1/3-5-5-5-5-53-1-1-1-1---|

e|----------------------------------------------------------|
B|----------------------------------------------------------|
G|------------------------------------------------5-5--7-7--|
D|--7-------75-3--------3/5-7-------75-3--------5-5--7-7--|
A|--7-7-7-7-75-3-3-3-3--3/5-7-7-7-7-75-3-3-3-3--3-3--5-5--|
E|--5-5-5-5-53-1-1-1-1--1/3-5-5-5-5-53-1-1-1-1------------|

"Bridge":

e|---------------------------|---------------------------|---------|
B|---------------------------|---------------------------|---------|
G|---------------------------|---------------------------|---------|
D|--7~-5~---3~-----------5~--|--7~-5~---3~--7-9-10-9-5~--|--7~-5~--|
A|--7~-5~---3~-3-3-3-3-3-5~--|--7~-5~---3~--7-9-10-9-5~--|--7~-5~--|
E|--5~-3~-0-1~-1-1-1-1-1-3~--|--5~-3~-0-1~--5-7-8--7-3~--|--5~-3~--|
          *    * * * * *              *

Sequencia da Música:

Piano Intro
Intro
Verse
Chorus 1
Verse
Chorus 2
Solo
Bridge
Chorus 1 (Repeat 'till fade)
-----------------------
Versão 3

e-------------------------------------|
B-13-12----13-12----------------------|
G-----------------------12-----12-14~-|
D------14-------14---12----14---------|
A-------------------------------------|
E-------------------------------------|

e|----------------------------------------------------------|
B|13-12-----13-12-------------------------------------------|
G|--------------------------12---------------------12---14--|
D|------14---------14----12----14-----------12--14----------|
A|----------------------------------12---14-----------------|
E|----------------------------------------------------------|

e|-----------------------------------------| 
B|-----------------------------------------| 
G|*------------------------------7-----7---| 
D|--7-------5-------2------------7-----7---| 
A|*-7-7-7-7-5-5-5-5-2-2-2-2------5-----5---| 
E|--5-5-5-5-3-3-3-3-0-0-0-0--0-0---0-0-----| 
* * * * 
e|-----------------------------------------| 
B|-----------------------------------------| 
G|-------------------------------9-----9-*-| 
D|--7-------5-------2------------9-----9---| 
A|--7-7-7-7-5-5-5-5-2-2-2-2------7-----7-*-| 
E|--5-5-5-5-3-3-3-3-0-0-0-0--0-0---0-0-----| 
* * * * 

(Actually, each chord is played 8 times, just listen to the song 
to get the rhythm :) 

Verse: 

e|-----------------------------------------| 
B|-----------------------------------------| 
G|-------------------------------7-----7---| 
D|--7-------5-------2------------7-----7---| 
A|--7-7-7-7-5-5-5-5-2-2-2-2------5-----5---| 
E|--5-5-5-5-3-3-3-3-0-0-0-0--0-0---0-0-----| 
* * * * 
e|-----------------------------------------| 
B|-----------------------------------------| 
G|-------------------------------9-----9---| 
D|--7-------5-------2------------9-----9---| 
A|--7-7-7-7-5-5-5-5-2-2-2-2------7-----7---| 
E|--5-5-5-5-3-3-3-3-0-0-0-0--0-0---0-0-----| 
* * * * 
e|-------------------------------------------------------------------------| 
B|-------------------------------------------------------------------------| 
G|-------------------------------7-----7-------------------------------7~--| 
D|--7-------5-------2------------7-----7---7-------5-------2-2-2-2-2-2-7~--| 
A|--7-7-7-7-5-5-5-5-2-2-2-2------5-----5---7-7-7-7-5-5-5-5-2-2-2-2-2-2-5~--| 
E|--5-5-5-5-3-3-3-3-0-0-0-0--0-0---0-0-----5-5-5-5-3-3-3-3-0-0-0-0-0-0-----| 
* * * * * * * * * 

Chorus 1: 

e|-----------------------------------------| 
B|-----------------------------------------| 
G|*------------------------------7-----7---| 
D|--7-------5-------2------------7-----7---| 
A|*-7-7-7-7-5-5-5-5-2-2-2-2------5-----5---| 
E|--5-5-5-5-3-3-3-3-0-0-0-0--0-0---0-0-----| 
* * * * 
e|-----------------------------------------| 
B|-----------------------------------------| 
G|-------------------------------9-----9-*-| 
D|--7-------5-------2------------9-----9---| 
A|--7-7-7-7-5-5-5-5-2-2-2-2------7-----7-*-| 
E|--5-5-5-5-3-3-3-3-0-0-0-0--0-0---0-0-----| 
* * * * 

Chorus 2: 

e|-----------------------------------------| 
B|-----------------------------------------| 
G|-------------------------------7-----7---| 
D|--7-------5-------2------------7-----7---| 
A|--7-7-7-7-5-5-5-5-2-2-2-2------5-----5---| 
E|--5-5-5-5-3-3-3-3-0-0-0-0--0-0---0-0-----| 
* * * * 
e|-----------------------------------------| 
B|-----------------------------------------| 
G|-------------------------------9-----9---| 
D|--7-------5-------2------------9-----9---| 
A|--7-7-7-7-5-5-5-5-2-2-2-2------7-----7---| 
E|--5-5-5-5-3-3-3-3-0-0-0-0--0-0---0-0-----| 
* * * * 
e|-------------------------------------------------------------------------| 
B|-------------------------------------------------------------------------| 
G|-------------------------------7-----7-------------------------------7~--| 
D|--7-------5-------2------------7-----7---7-------5-------2-2-2-2-2-2-7~--| 
A|--7-7-7-7-5-5-5-5-2-2-2-2------5-----5---7-7-7-7-5-5-5-5-2-2-2-2-2-2-5~--| 
E|--5-5-5-5-3-3-3-3-0-0-0-0--0-0---0-0-----5-5-5-5-3-3-3-3-0-0-0-0-0-0-----| 
* * * * * * * * * 

acordes do solo: 

e|-------------------------------------------------| 
B|-------------------------------------------------| 
G|-------------------------------------------------| 
D|--7-------75-3--------3/5-7-------75-3---------| 
A|--7-7-7-7-75-3-3-3-3--3/5-7-7-7-7-75-3-3-3-3---| 
E|--5-5-5-5-53-1-1-1-1--1/3-5-5-5-5-53-1-1-1-1---| 

e|----------------------------------------------------------| 
B|----------------------------------------------------------| 
G|------------------------------------------------5-5--7-7--| 
D|--7-------75-3--------3/5-7-------75-3--------5-5--7-7--| 
A|--7-7-7-7-75-3-3-3-3--3/5-7-7-7-7-75-3-3-3-3--3-3--5-5--| 
E|--5-5-5-5-53-1-1-1-1--1/3-5-5-5-5-53-1-1-1-1------------| 

"Bridge": 

e|---------------------------|---------------------------|---------| 
B|---------------------------|---------------------------|---------| 
G|---------------------------|---------------------------|---------| 
D|--7~-5~---3~-----------5~--|--7~-5~---3~--7-9-10-9-5~--|--7~-5~--| 
A|--7~-5~---3~-3-3-3-3-3-5~--|--7~-5~---3~--7-9-10-9-5~--|--7~-5~--| 
E|--5~-3~-0-1~-1-1-1-1-1-3~--|--5~-3~-0-1~--5-7-8--7-3~--|--5~-3~--| 
* * * * * * * 

Sequencia: 

Piano Intro 
Intro 
Verse 
Chorus 1 
Verse 
Chorus 2 
Solo 
Bridge 
Chorus 1 (Repeat 'til fade) 
Composição de Andi Deris
Colaboração e revisão:
  • guilherme mariz
39.351 exibições
    • ½ Tom
    • A
    • Bb
    • B
    • C
    • Db
    • D
    • Eb
    • E
    • F
    • F#
    • G
    • Ab
  • Adicionar à lista

    0 comentários

    Ver todos os comentários

    Conseguiu tocar?

    4 Tocaram 0 Ainda não

    Grave um vídeo tocando If i could fly e nos envie!

    00:00 / 00:00
    Outros vídeos desta música
    Repetir Qualidade Automático
    Outros vídeos desta música
    00:00 / 00:00
    Automático

    Cifra Club Pro

    Aproveite o Cifra Club com benefícios exclusivos e sem anúncios
    Cifra Club Pro
    Aproveite o Cifra Club com benefícios exclusivos e sem anúncios
    OK