Cifra Club

Aprenda

I´m alive

Helloween

Cifra: Principal (violão e guitarra)
tom: E
E||----------------------|----------------------|----------------------| 
B||----------------------|----------------------|----------------------| 
G||----------------------|----------------------|----------------------| 
D||----------------------|----------------------|----------------------| 
A||-------0--------------|-------0--------------|-------0--------------| 
E||--2---------4----0----|--2---------4----0----|--2---------4----0----| 


                                                                      
----------------------|----------------------|----------------------| 
----------------------|----------------------|----------------------| 
----------------------|----------------------|----------------------| 
----------------------|----------------------|----------------------| 
-------0--------------|-------0--------------|-------0--------------| 
--2---------4----0----|--2---------4----0----|--2---------4----0----| 


                                                                      
----------------------|----------------------|----------------------| 
----------------------|----------------------|----------------------| 
----------------------|----------------------|----------------------| 
----------------------|----------------------|----------------------| 
-------0---------4----|--2----0--------------|--0----4----2---------| 
--2---------4---------|------------4----0----|--2----5----4----0----| 


                                                                      
----------------------|----------------------|----------------------| 
----------------------|----------------------|----------------------| 
----------------------|----------------------|----------------------| 
----------------------|----------------------|----------------------| 
--0----4----2---------|--0----4----2---------|--0----4----2---------| 
--2----5----4----0----|--2----5----4----0----|--2----5----4----0----| 


                                                                      
----------------------|----------------------|----------------------| 
----------------------|----------------------|----------------------| 
----------------------|----------------------|----------------------| 
----------------------|----------------------|-----------------2----| 
--0----4----2---------|--0----4----2---------|--0----4----2----4----| 
--2----5----4----0----|--2----5----4----0----|--2----5----4---------| 


                                                                              
----------------------|--------------------------|--------------------------| 
----------------------|--------------------------|--------------------------| 
----------------------|--------------------------|--------------------------| 
--0-------------------|--------------------------|--------------------------| 
--2----4----2---------|--------------------------|--------------------------| 
-------5----4----0----|--0--2--2--2--2--2--2--2--|--0--2--2--2--2--2--2--2--| 


                                                                           
--------------------------|-------------------|--------------------------| 
--------------------------|-------------------|--------------------------| 
--------------------------|--9----------------|--------------------------| 
--------------------------|--9----------------|--------------------------| 
--------------------------|--7----------------|--------------------------| 
--0--2--2--2--2--2--2--2--|-------------------|--0--2--2--2--2--2--2--2--| 


                                                                           
--------------------------|--------------------------|-------------------| 
--------------------------|--------------------------|-------------------| 
--------------------------|--------------------------|--9----------------| 
--------------------------|--------------------------|--9----------------| 
--------------------------|--------------------------|--7----------------| 
--0--2--2--2--2--2--2--2--|--0--2--2--2--2--2--2--2--|-------------------| 


                                                                
--------------------|--------------------|--------------------| 
-----------5--------|--3-----------------|--------------------| 
-----------6--------|--4--------6--------|--4-----------------| 
--3-----------------|-----------7--------|--6--------6--------| 
--4-----------------|--------------------|-----------8--------| 
--------------------|--------------------|--------------------| 


                                                                
--------------------|--------------------|--------------------| 
--------------------|--------------------|--------------------| 
-----------4--------|--6--------4--------|--------------------| 
--7--------6--------|--7--------6--------|--7--------6--------| 
--9-----------------|--------------------|--9--------8--------| 
--------------------|--------------------|--------------------| 


                                                               
--------------------|-------------------|--------------------| 
--------------------|-------------------|-----------5--------| 
-----------4--------|-------------------|-----------6--------| 
--7--------6--------|--3----------------|--3-----------------| 
--9-----------------|--4----------------|--4-----------------| 
--------------------|-------------------|--------------------| 


                                                                
--------------------|--------------------|--------------------| 
--3-----------------|--------------------|--------------------| 
--4--------6--------|--4-----------------|-----------4--------| 
-----------7--------|--6--------6--------|--7--------6--------| 
--------------------|-----------8--------|--9-----------------| 
--------------------|--------------------|--------------------| 


                                                                     
-----------------------|-------------------|-----------------------| 
-----------------------|-------------------|-----------------------| 
--6--------4h-6h-4h-2--|-------------------|--7--------6h-7h-6h-4--| 
--7--------6h-7h-6h-4--|--4----------------|--9--------7h-9h-7h-6--| 
-----------------------|--5----------------|-----------------------| 
-----------------------|-------------------|-----------------------| 


                                                              
-------------------|-------------------|--------------------| 
-------------------|-------------------|--------------------| 
-------------------|-------------------|--------------------| 
--6----------------|--4----------------|------4--------2----| 
--7----------------|--4----------------|------4--------2----| 
-------------------|--2----------------|------2--------0----| 


                                                                                 
-------------------|--------------------|-------------------|------------------| 
-------------------|--------------------|-------------------|------------------| 
-------------------|--------------------|-------------------|------------------| 
--4----------------|------4--------2----|--4----------------|------------------| 
--4----------------|------4--------2----|--4----------------|------------------| 
--2----------------|------2--------0----|--2----------------|------------------| 


                                                               
-------------------|---------------------|-------------------| 
-------------------|---------------------|-------------------| 
--7----------------|--6------------------|-------------------| 
--7----------------|--6----4--------2----|--4----------------| 
--5----------------|--4----4--------2----|--4----------------| 
-------------------|-------2--------0----|--2----------------| 


                                                               
--------------------|-------------------|--------------------| 
--------------------|-------------------|--------------------| 
--------------------|-------------------|--------------------| 
------4--------2----|--4----------------|------4--------2----| 
------4--------2----|--4----------------|------4--------2----| 
------2--------0----|--2----------------|------2--------0----| 


                                                                   
-------------------|------------------|--------------------------| 
-------------------|------------------|--------------------------| 
-------------------|------------------|--------------------------| 
--4----------------|------------------|--6--6--6--6--6--6--6--6--| 
--4----------------|------------------|--4--4--4--4--4--4--4--4--| 
--2----------------|------------------|--------------------------| 


                                                                      
--------------------------|--------------------|--------------------| 
--------------------------|--------------------|--------------------| 
--------------------------|--6--------4--------|--2-----------------| 
--6--6--6--6--6--6--6--6--|--6--------4--------|--2--------6--------| 
--4--4--4--4--4--4--4--4--|--4--------2--------|--0--------6--------| 
--------------------------|--------------------|-----------4--------| 


                                                       
--------------------------|--------------------------| 
--------------------------|--------------------------| 
--------------------------|--------------------------| 
--------------------------|--------------------------| 
--------------------------|--------------------------| 
--0--2--2--2--2--2--2--2--|--0--2--2--2--2--2--2--2--| 


                                                                           
--------------------------|-------------------|--------------------------| 
--------------------------|-------------------|--------------------------| 
--------------------------|--9----------------|--------------------------| 
--------------------------|--9----------------|--------------------------| 
--------------------------|--7----------------|--------------------------| 
--0--2--2--2--2--2--2--2--|-------------------|--0--2--2--2--2--2--2--2--| 


                                                                           
--------------------------|--------------------------|-------------------| 
--------------------------|--------------------------|-------------------| 
--------------------------|--------------------------|--9----------------| 
--------------------------|--------------------------|--9----------------| 
--------------------------|--------------------------|--7----------------| 
--0--2--2--2--2--2--2--2--|--0--2--2--2--2--2--2--2--|-------------------| 


                                                                
--------------------|--------------------|--------------------| 
-----------5--------|--3-----------------|--------------------| 
-----------6--------|--4--------6--------|--4-----------------| 
--3-----------------|-----------7--------|--6--------6--------| 
--4-----------------|--------------------|-----------8--------| 
--------------------|--------------------|--------------------| 


                                                                
--------------------|--------------------|--------------------| 
--------------------|--------------------|--------------------| 
-----------4--------|--6--------4--------|--------------------| 
--7--------6--------|--7--------6--------|--7--------6--------| 
--9-----------------|--------------------|--9--------8--------| 
--------------------|--------------------|--------------------| 


                                                               
--------------------|-------------------|--------------------| 
--------------------|-------------------|-----------5--------| 
-----------4--------|-------------------|-----------6--------| 
--7--------6--------|--3----------------|--3-----------------| 
--9-----------------|--4----------------|--4-----------------| 
--------------------|-------------------|--------------------| 


                                                                
--------------------|--------------------|--------------------| 
--3-----------------|--------------------|--------------------| 
--4--------6--------|--4-----------------|-----------4--------| 
-----------7--------|--6--------6--------|--7--------6--------| 
--------------------|-----------8--------|--9-----------------| 
--------------------|--------------------|--------------------| 


                                                                     
-----------------------|-------------------|-----------------------| 
-----------------------|-------------------|-----------------------| 
--6--------4h-6h-4h-2--|-------------------|--7--------6h-7h-6h-4--| 
--7--------6h-7h-6h-4--|--4----------------|--9--------7h-9h-7h-6--| 
-----------------------|--5----------------|-----------------------| 
-----------------------|-------------------|-----------------------| 


                                                              
-------------------|-------------------|--------------------| 
-------------------|-------------------|--------------------| 
-------------------|-------------------|--------------------| 
--6----------------|--4----------------|------4--------2----| 
--7----------------|--4----------------|------4--------2----| 
-------------------|--2----------------|------2--------0----| 


                                                                                 
-------------------|--------------------|-------------------|------------------| 
-------------------|--------------------|-------------------|------------------| 
-------------------|--------------------|-------------------|------------------| 
--4----------------|------4--------2----|--4----------------|------------------| 
--4----------------|------4--------2----|--4----------------|------------------| 
--2----------------|------2--------0----|--2----------------|------------------| 


                                                               
-------------------|---------------------|-------------------| 
-------------------|---------------------|-------------------| 
--7----------------|--6------------------|-------------------| 
--7----------------|--6----4--------2----|--4----------------| 
--5----------------|--4----4--------2----|--4----------------| 
-------------------|-------2--------0----|--2----------------| 


                                                               
--------------------|-------------------|--------------------| 
--------------------|-------------------|--------------------| 
--------------------|-------------------|--------------------| 
------4--------2----|--4----------------|------4--------2----| 
------4--------2----|--4----------------|------4--------2----| 
------2--------0----|--2----------------|------2--------0----| 


                                                                   
-------------------|------------------|--------------------------| 
-------------------|------------------|--------------------------| 
-------------------|------------------|--------------------------| 
--4----------------|------------------|--6--6--6--6--6--6--6--6--| 
--4----------------|------------------|--4--4--4--4--4--4--4--4--| 
--2----------------|------------------|--------------------------| 


                                                                      
--------------------------|--------------------|--------------------| 
--------------------------|--------------------|--------------------| 
--------------------------|--6--------4--------|--2-----------------| 
--6--6--6--6--6--6--6--6--|--6--------4--------|--2--------6--------| 
--4--4--4--4--4--4--4--4--|--4--------2--------|--0--------6--------| 
--------------------------|--------------------|-----------4--------| 


                                                                     
----------------------|---------------------|----------------------| 
----------------------|--9--------10--------|--12b-------12--------| 
--11--------11--------|---------------------|----------------------| 
----------------------|---------------------|----------------------| 
----------------------|---------------------|----------------------| 
----------------------|---------------------|----------------------| 


                                                                 
---------------------|--------------------|--------------------| 
--10--------9--------|--6--------6--------|--7--------9--------| 
---------------------|--------------------|--------------------| 
---------------------|--------------------|--------------------| 
---------------------|--------------------|--------------------| 
---------------------|--------------------|--------------------| 


                                                                   
-------------------|------------------|--------------------------| 
--9----------------|------------------|--------------------------| 
-------------------|------------------|--------------------------| 
-------------------|------------------|--7t-4h-0h-4--7t-4h-0h-4--| 
-------------------|------------------|--------------------------| 
-------------------|------------------|--------------------------| 


                                                       
--------------------------|--------------------------| 
--------------------------|--------------------------| 
--------------------------|--------------------------| 
--7--4--0--4--7--4--0--4--|--9--6--2--6--9--6--2--6--| 
--------------------------|--------------------------| 
--------------------------|--------------------------| 


                                                         
--------------------------|----------------------------| 
--------------------------|----------------------------| 
--------------------------|----------------------------| 
--9--6--2--6--9--6--2--6--|--11--7--4--7--11--7--4--7--| 
--------------------------|----------------------------| 
--------------------------|----------------------------| 


                                                                     
----------------------------|-------------------|------------------| 
----------------------------|-------------------|------------------| 
----------------------------|--9----------------|------------------| 
--11--7--4--7--11--7--4--7--|--9----------------|------------------| 
----------------------------|--7----------------|------------------| 
----------------------------|-------------------|------------------| 


                                                       
--------------------------|--------------------------| 
--------------------------|--------------------------| 
--7--4--0--4--7--4--0--4--|--7--4--0--4--7--4--0--4--| 
--------------------------|--------------------------| 
--------------------------|--------------------------| 
--------------------------|--------------------------| 


                                                       
--------------------------|--------------------------| 
--------------------------|--------------------------| 
--9--6--2--6--9--6--2--6--|--9--6--2--6--9--6--2--6--| 
--------------------------|--------------------------| 
--------------------------|--------------------------| 
--------------------------|--------------------------| 


                                                                                
----------------------------|----------------------------|--------------------| 
----------------------------|----------------------------|--10b---------------| 
--11--7--4--7--11--7--4--7--|--11--7--4--7--11--7--4--7--|--------------------| 
----------------------------|----------------------------|--------------------| 
----------------------------|----------------------------|--------------------| 
----------------------------|----------------------------|--------------------| 


                                                       
------------------|----------------------------------| 
------------------|--12--12--12--12--12--14--15--12--| 
------------------|----------------------------------| 
------------------|----------------------------------| 
------------------|----------------------------------| 
------------------|----------------------------------| 


                                                                       
--14--14--14--14--14--12----------|----------------------------------| 
--------------------------15--12--|--11--11--11--11--11--12--14--11--| 
----------------------------------|----------------------------------| 
----------------------------------|----------------------------------| 
----------------------------------|----------------------------------| 
----------------------------------|----------------------------------| 


                                                                       
----------------------------------|----------------------------------| 
----------------------------------|--12--12--12--12--12--14--15--12--| 
--12--12--11--11------------------|----------------------------------| 
------------------14--14--11--11--|----------------------------------| 
----------------------------------|----------------------------------| 
----------------------------------|----------------------------------| 


                                                                       
--14--14--14--14--14--12----------|----------------------------------| 
--------------------------15--12--|--11--11--11--11--11--12--14--12--| 
----------------------------------|----------------------------------| 
----------------------------------|----------------------------------| 
----------------------------------|----------------------------------| 
----------------------------------|----------------------------------| 


                                                             
------------------------|----------------------------------| 
--11----14----12--------|--12--12--12--12--12--14--15--12--| 
------------------------|----------------------------------| 
------------------------|----------------------------------| 
------------------------|----------------------------------| 
------------------------|----------------------------------| 


                                                                       
--14--14--14--14--14--12----------|----------------------------------| 
--------------------------15--12--|--11--11--11--11--11--12--14--11--| 
----------------------------------|----------------------------------| 
----------------------------------|----------------------------------| 
----------------------------------|----------------------------------| 
----------------------------------|----------------------------------| 


                                                                       
----------------------------------|----------------------------------| 
----------------------------------|--12--12--12--12--12--14--15--12--| 
--12--12--11--11------------------|----------------------------------| 
------------------14--14--11--11--|----------------------------------| 
----------------------------------|----------------------------------| 
----------------------------------|----------------------------------| 


                                                                       
--14--14--14--14--14--12----------|----------------------------------| 
--------------------------15--12--|--11--11--11--11--11--12--14--12--| 
----------------------------------|----------------------------------| 
----------------------------------|----------------------------------| 
----------------------------------|----------------------------------| 
----------------------------------|----------------------------------| 


                                                                      
------------------------|---------------------|---------------------| 
--11----14----12--------|---------------------|---------------------| 
------------------------|---------------------|---------------------| 
------------------------|--6------------6--6--|--4------6------7----| 
------------------------|---------------------|---------------------| 
------------------------|---------------------|---------------------| 


                                                                   
---------------------|---------------------|---------------------| 
---------------------|---------------------|---------------------| 
---------------------|--4------------------|---------------------| 
--6------------6--6--|---------7------6----|---------------------| 
---------------------|---------------------|--4------------4--4--| 
---------------------|---------------------|---------------------| 


                                                                   
---------------------|---------------------|---------------------| 
---------------------|---------------------|---------------------| 
---------------------|---------------------|--4------------------| 
---------------------|---------------------|---------7------4----| 
--2------4------5----|--4------------4--4--|---------------------| 
---------------------|---------------------|---------------------| 


                                                                   
---------------------|---------------------|---------------------| 
---------------------|---------------------|---------------------| 
---------------------|---------------------|---------------------| 
--6------------6--6--|--4------6------7----|--6------------6--6--| 
---------------------|---------------------|---------------------| 
---------------------|---------------------|---------------------| 


                                                                   
---------------------|---------------------|---------------------| 
---------------------|---------------------|---------------------| 
--4------------------|---------------------|---------------------| 
---------7------6----|---------------------|---------------------| 
---------------------|--4------------4--4--|--2------4------5----| 
---------------------|---------------------|---------------------| 


                                                                               
--------------------|---------------------|--10--10--10--10--8---8---8---8---| 
--------------------|---------------------|--12--12--12--12--10--10--10--10--| 
--------------------|---------------------|----------------------------------| 
--------------------|---------------------|----------------------------------| 
--4------------2----|--4------5------6----|----------------------------------| 
--------------------|---------------------|----------------------------------| 


                                                                   
--7--7--7--7--8---8---8---8---|--8---10--10--10--8---8---8---8---| 
--8--8--8--8--10--10--10--10--|--10--12--12--12--10--10--10--10--| 
------------------------------|----------------------------------| 
------------------------------|----------------------------------| 
------------------------------|----------------------------------| 
------------------------------|----------------------------------| 


                                                                   
--7--7--7--7--8---8---8---8---|--10--10--10--10--8---8---8---8---| 
--8--8--8--8--10--10--10--10--|--12--12--12--12--10--10--10--10--| 
------------------------------|----------------------------------| 
------------------------------|----------------------------------| 
------------------------------|----------------------------------| 
------------------------------|----------------------------------| 


                                                                   
--7--7--7--7--8---8---8---8---|--8---10--10--10--8---8---8---8---| 
--8--8--8--8--10--10--10--10--|--10--12--12--12--10--10--10--10--| 
------------------------------|----------------------------------| 
------------------------------|----------------------------------| 
------------------------------|----------------------------------| 
------------------------------|----------------------------------| 


                                                                   
--7--7--7--7--8---8---8---8---|--10--10--10--10--8---8---8---8---| 
--8--8--8--8--10--10--10--10--|--12--12--12--12--10--10--10--10--| 
------------------------------|----------------------------------| 
------------------------------|----------------------------------| 
------------------------------|----------------------------------| 
------------------------------|----------------------------------| 


                                                                   
--7--7--7--7--8---8---8---8---|--8---10--10--10--8---8---8---8---| 
--8--8--8--8--10--10--10--10--|--10--12--12--12--10--10--10--10--| 
------------------------------|----------------------------------| 
------------------------------|----------------------------------| 
------------------------------|----------------------------------| 
------------------------------|----------------------------------| 


                                                                   
--7--7--7--7--8---8---8---8---|--10--10--10--10--8---8---8---8---| 
--8--8--8--8--10--10--10--10--|--12--12--12--12--10--10--10--10--| 
------------------------------|----------------------------------| 
------------------------------|----------------------------------| 
------------------------------|----------------------------------| 
------------------------------|----------------------------------| 


                                                                   
--7--7--7--7--8---8---8---8---|--8---10--10--10--8---8---8---8---| 
--8--8--8--8--10--10--10--10--|--10--12--12--12--10--10--10--10--| 
------------------------------|----------------------------------| 
------------------------------|----------------------------------| 
------------------------------|----------------------------------| 
------------------------------|----------------------------------| 


                                                                 
--7--7--7--7--8---8---8---8---|--10--8---7--8---10--8---7--8---| 
--8--8--8--8--10--10--10--10--|--12--10--8--10--12--10--8--10--| 
------------------------------|--------------------------------| 
------------------------------|--------------------------------| 
------------------------------|--------------------------------| 
------------------------------|--------------------------------| 


                                                                   
--10--8---7--8---10--8---7--8---|--10--8---7--8---10--8---7--8---| 
--12--10--8--10--12--10--8--10--|--12--10--8--10--12--10--8--10--| 
--------------------------------|--------------------------------| 
--------------------------------|--------------------------------| 
--------------------------------|--------------------------------| 
--------------------------------|--------------------------------| 


                                                                             
--10--8---7--8---10--8---7--8---|---------------------|--------------------| 
--12--10--8--10--12--10--8--10--|--12-----------------|----------12--------| 
--------------------------------|----------------9----|--------------------| 
--------------------------------|---------------------|--------------------| 
--------------------------------|---------------------|--------------------| 
--------------------------------|---------------------|--------------------| 


                                                                 
--------------------|------------------|-----------------------| 
--15b---------------|------------------|--10-------------10----| 
--------------------|------------------|------------9----------| 
--------------------|------------------|-----------------------| 
--------------------|------------------|-----------------------| 
--------------------|------------------|-----------------------| 


                                                                      
-----------------------|------------------------|-------------------| 
--10b------------12----|--12b-------12----10----|--7----------------| 
------------9----------|------------------------|-------------------| 
-----------------------|------------------------|-------------------| 
-----------------------|------------------------|-------------------| 
-----------------------|------------------------|-------------------| 


                                                                        
------------------------|----------------------|----------------------| 
--10--------12----12b---|--12------9-----------|--9b-------9----10----| 
------------------------|-----------------9----|----------------------| 
------------------------|----------------------|----------------------| 
------------------------|----------------------|----------------------| 
------------------------|----------------------|----------------------| 


                                                                      
--------------------|-----------------------|-----------------------| 
--------------------|--10-------------10----|--10b------------12----| 
--11----------------|----------9------------|------------9----------| 
--------------------|-----------------------|-----------------------| 
--------------------|-----------------------|-----------------------| 
--------------------|-----------------------|-----------------------| 


                                                                          
----------12------16b---|--14----------------|--19b-------19b---19--17--| 
--12b-------------------|--------------------|--------------------------| 
------------------------|--------------------|--------------------------| 
------------------------|--------------------|--------------------------| 
------------------------|--------------------|--------------------------| 
------------------------|--------------------|--------------------------| 


                                                                        
--19----22b---22b-------|------------------------|--------------------| 
------------------------|--21b-------21-----22---|--19----------------| 
------------------------|------------------------|--------------------| 
------------------------|------------------------|--------------------| 
------------------------|------------------------|--------------------| 
------------------------|------------------------|--------------------| 


                                                   
------------------------|------------------------| 
--21b-----21------22----|--19------------17--17--| 
------------------------|------------------------| 
------------------------|------------------------| 
------------------------|------------------------| 
------------------------|------------------------| 


                                                               
----------------------19--19--|--19----22--22--22----22--22--| 
--17----21--21--21------------|------------------------------| 
------------------------------|------------------------------| 
------------------------------|------------------------------| 
------------------------------|------------------------------| 
------------------------------|------------------------------| 


                                                              
--22b---------------|------------------|--------------------| 
--------------------|------------------|-----------5--------| 
--------------------|------------------|-----------6--------| 
--------------------|------------------|--3-----------------| 
--------------------|------------------|--4-----------------| 
--------------------|------------------|--------------------| 


                                                                
--------------------|--------------------|--------------------| 
--3-----------------|--------------------|--------------------| 
--4--------6--------|--4-----------------|-----------4--------| 
-----------7--------|--6--------6--------|--7--------6--------| 
--------------------|-----------8--------|--9-----------------| 
--------------------|--------------------|--------------------| 


                                                                
--------------------|--------------------|--------------------| 
--------------------|--------------------|--------------------| 
--6--------4--------|--------------------|-----------4--------| 
--7--------6--------|--7--------6--------|--7--------6--------| 
--------------------|--9--------8--------|--9-----------------| 
--------------------|--------------------|--------------------| 


                                                               
-------------------|--------------------|--------------------| 
-------------------|-----------5--------|--3-----------------| 
-------------------|-----------6--------|--4--------6--------| 
--3----------------|--3-----------------|-----------7--------| 
--4----------------|--4-----------------|--------------------| 
-------------------|--------------------|--------------------| 


                                                                   
--------------------|--------------------|-----------------------| 
--------------------|--------------------|-----------------------| 
--4-----------------|-----------4--------|--6--------4h-6h-4h-2--| 
--6--------6--------|--7--------6--------|--7--------6h-7h-6h-4--| 
-----------8--------|--9-----------------|-----------------------| 
--------------------|--------------------|-----------------------| 


                                                                  
--------------------|-----------------------|-------------------| 
--------------------|-----------------------|-------------------| 
--------------------|--7--------6h-7h-6h-4--|-------------------| 
--4--------4--------|--9--------7h-9h-7h-6--|--6----------------| 
--5--------5--------|-----------------------|--7----------------| 
--------------------|-----------------------|-------------------| 


                                                              
-------------------|--------------------|-------------------| 
-------------------|--------------------|-------------------| 
-------------------|--------------------|-------------------| 
--4----------------|------4--------2----|--4----------------| 
--4----------------|------4--------2----|--4----------------| 
--2----------------|------2--------0----|--2----------------| 


                                                                                 
--------------------|-------------------|------------------|-------------------| 
--------------------|-------------------|------------------|-------------------| 
--------------------|-------------------|------------------|--7----------------| 
------4--------2----|--4----------------|------------------|--7----------------| 
------4--------2----|--4----------------|------------------|--5----------------| 
------2--------0----|--2----------------|------------------|-------------------| 


                                                                
---------------------|-------------------|--------------------| 
---------------------|-------------------|--------------------| 
--6------------------|-------------------|--------------------| 
--6----4--------2----|--4----------------|------4--------2----| 
--4----4--------2----|--4----------------|------4--------2----| 
-------2--------0----|--2----------------|------2--------0----| 


                                                                                 
-------------------|--------------------|-------------------|------------------| 
-------------------|--------------------|-------------------|------------------| 
-------------------|--------------------|-------------------|------------------| 
--4----------------|------4--------2----|--4----------------|------------------| 
--4----------------|------4--------2----|--4----------------|------------------| 
--2----------------|------2--------0----|--2----------------|------------------| 


                                                                    
--------------------------|-------------------|-------------------| 
--------------------------|-------------------|-------------------| 
--------------------------|-------------------|-------------------| 
--6--6--6--6--6--6--6--6--|--6----------------|--4----------------| 
--4--4--4--4--4--4--4--4--|--4----------------|--4----------------| 
--------------------------|-------------------|--2----------------| 


                                                               
--------------------|-------------------|--------------------| 
--------------------|-------------------|--------------------| 
--------------------|-------------------|--------------------| 
------4--------2----|--4----------------|------4--------2----| 
------4--------2----|--4----------------|------4--------2----| 
------2--------0----|--2----------------|------2--------0----| 


                                                            
-------------------|------------------|-------------------| 
-------------------|------------------|-------------------| 
-------------------|------------------|--7----------------| 
--4----------------|------------------|--7----------------| 
--4----------------|------------------|--5----------------| 
--2----------------|------------------|-------------------| 


                                                                
---------------------|-------------------|--------------------| 
---------------------|-------------------|--------------------| 
--6------------------|-------------------|--------------------| 
--6----4--------2----|--4----------------|------4--------2----| 
--4----4--------2----|--4----------------|------4--------2----| 
-------2--------0----|--2----------------|------2--------0----| 


                                                                                 
-------------------|--------------------|-------------------|------------------| 
-------------------|--------------------|-------------------|------------------| 
-------------------|--------------------|-------------------|------------------| 
--4----------------|------4--------2----|--4----------------|------------------| 
--4----------------|------4--------2----|--4----------------|------------------| 
--2----------------|------2--------0----|--2----------------|------------------| 


                                                                               
--------------------------|-----------------------|--------------------------| 
--------------------------|-----------------------|--------------------------| 
--------------------------|-----------------------|--------------------------| 
--6--6--6--6--6--6--6--6--|--6--6--6--6--6--------|--6--6--6--6--6--6--6--6--| 
--4--4--4--4--4--4--4--4--|--4--4--4--4--4--------|--4--4--4--4--4--4--4--4--| 
--------------------------|-----------------------|--------------------------| 


                                                                          
-----------------------|--------------------------|---------------------| 
-----------------------|--------------------------|---------------------| 
-----------------------|--------------------------|---------------------| 
--6--6--6--6--6--------|--6--6--6--6--6--6--6--6--|--6----4--------2----| 
--4--4--4--4--4--------|--4--4--4--4--4--4--4--4--|--4----4--------2----| 
-----------------------|--------------------------|-------2--------0----| 


                      
-------------------|| 
-------------------|| 
-------------------|| 
--4----------------|| 
--4----------------|| 
--2----------------|| 
Composição de Kai Hansen
Colaboração e revisão:
  • guepardo weles
5.214 exibições
    • ½ Tom
    • A
    • Bb
    • B
    • C
    • Db
    • D
    • Eb
    • E
    • F
    • F#
    • G
    • Ab
  • Adicionar à lista

    0 comentários

    Ver todos os comentários

    Conseguiu tocar?

    0 Tocaram 0 Ainda não

    Grave um vídeo tocando I´m alive e nos envie!

    00:00 / 00:00
    Outros vídeos desta música
    Repetir Qualidade Automático
    Outros vídeos desta música
    00:00 / 00:00
    Automático

    Cifra Club Pro

    Aproveite o Cifra Club com benefícios exclusivos e sem anúncios
    Cifra Club Pro
    Aproveite o Cifra Club com benefícios exclusivos e sem anúncios
    OK