Cifra Club

Aprenda

Wake Up the Mountain

Helloween

Cifra: Principal (violão e guitarra)
tom: D
Guitarras afinadas ½ tom abaixo;

Intro
--------------------------------------|
--------------------------------------|
--------------------------------------|
-7----10-----5--5-----2-----3---5-|
-5-----8-----3--3-----0-----1---3-|
--------------------------------------|

--------------------------------------|
--------------------------------------|
--------------------------------------|
-7----10-----5--5-----3------------|
-5-----8-----3--3-----1-------------|
--------------------------------------|

------------------------------------|
------------------------------------|
------------------------------------|
-7----10-----5--5-----2-----3--5|
-5-----8-----3--3-----0-----1--3|
------------------------------------|

------------------------------------------------|
------------------------------------------------|
------------------------------------------------|
-7----10-----5--5-----3------5--5---3---3-5|
-5-----8-----3--3-----1------3--3---1---1-3|
------------------------------------------------|

Passagem de baixo;Canto 1;

Canto 2;

----------------------------------------------------------|
----------------------------------------------------------|
----------------------------------------------------------|
------------------------------------5-5---3-3-----------|
---5-5---3--5-5-------1-1-2-2---3-3---1-1-3--------|
---3-3---1--3-3---1-1---------------------------1--2-|

Pré refrão;

------------------------------------------------------------
------------------------------------------------------------
------------------------------------------------------------
------------------------------------------------------------
-3-3-3-3-3-3-5-5-5-5-5-5-7-7-7-7-7-7-8-8-8-8-8-8
------------------------------------------------------------

----------------------------------------------------------------------
----------------------------------------------------------------------
----------------------------------------------------------------------
--------------------10-10-10-10-12-12-12-12-------------------
-10-10-10-10-10-------------------------------10-10-10-10-10
----------------------------------------------------------------------

-------------------------------------------------------------|
-------------------------------------------------------------|
-------------------------------------------------------------|
-------------------------------------------------------------|
-8-8-8-8-8-8-10-10-10-10-10-10-5-5-5-5-5-5-5-5-5|
-------------------------------------------------------------|

------------------------------------------------------------
------------------------------------------------------------
------------------------------------------------------------
------------------------------------------------------------
-3-3-3-3-3-3-5-5-5-5-5-5-7-7-7-7-7-7-8-8-8-8-8-8
------------------------------------------------------------

-------------------------------------------------------------------------
-------------------------------------------------------------------------
-------------------------------------------------------------------------
----------------10-10-10-10-12-12-12-12-8-8-8-8-12-12-12-12
-10-10-10-10---------------------------------------------------------
-------------------------------------------------------------------------

-----------------------------------------------------|
-----------------------------------------------------|
-----------------------------------------------------|
-14-14-14-14-10-10-10-10-12-12-12-12-14~|
-----------------------------------------------------|
-----------------------------------------------------|

Refrão igual Intro;
Repetir Canto 2;
Repetir Pré refrão;
Repetir Refrão;

Riff;

--------------------------------|
--------------------------------|
--------------------------------|
--------------------------------|    Ir Aumentando velocidade;
--------------------------------|
-3--3---1--3-----3--3---1--3|

Solo;Weikat
C
------------------------------|-------------------------------------------|
-11b---8h10p8---8--------|-------------------------------------------|
-----------------10--10-9-9|-7----7-----------------------------------|
------------------------------|---10---10-9---9-10p8----8------------|
------------------------------|--------------10---------10---10p9p8-7|
------------------------------|-------------------------------------------|
G
-13b--13--13b-13--13b-13|-15br13-15~-------------|
-------------------------------|-----------------------------|
-------------------------------|-----------------------------|
-------------------------------|-----------------------------|
-------------------------------|-----------------------------|
-------------------------------|-----------------------------|
C
-18h13-15h13----------------|-------------------------------|
-----------------18h13-18h13|-------------------------------|
---------------------------------|-15p12-----------------------|
---------------------------------|--------15p12----------------|
-Repetir esse compasso 3---|---------------15h17-15p13|
------------vezes.--------------|-------------------------------|
C
------------------------------------------------|
------------------------------------------------|
------------------------------------------------|
-15b---15-12-----12------------------------|
-----------------15-----15---14-15-14---13|
------------------------------------------15---|
F
-------------------------------------------------------------|
-------------------------------------------------------------|
----------------------------------------------------------15|
-------------------------------------------15-17-15-17---|
------------13-14-15-16-17-15-16-17------------------|
-13-14-15-------------------------------------------------|
Eb
-------------------------------------------------------|
-----15-15-18p15----15----------------------------|
-17b---------------17----17b-17p15-----17----15|
-----------------------------------------17-----17---|
-------------------------------------------------------|
-------------------------------------------------------|
F                                                                       Dm
--------15-18p15-20p15-18p15-----------------------|--------|
-----15----------------------------18p15-18p15--------|--------|
-17b-----------------------------------------------17p15|-17b---|
------------------------------------------------------------|--------|
------------------------------------------------------------|--------|
------------------------------------------------------------|--------|

Outra passagen de baixo;

-----------------------------------|
-----------------------------------|
-----------------------------------|  Fazer 2 vezes;
----------------3-----------------|
-5--3--5--3-5------5----------3|
-----------------------1-2--3-4--|

Dueto;
Grapow;
|---------------------------------------------|-------------------------------------------|
|--------8-----10--11--10---8---8h10p8-|-6-----8-----10--11--10---8---8h10p8|
|-10-----------------------------------------|-------------------------------------------|  
|----7-7--7-7----7---7----7---7-----------|---7-7--7-7----7---7-----7---7---------|
|---------------------------------------------|-------------------------------------------|
|---------------------------------------------|-------------------------------------------|
|Weikat
|---------------------------------------------|--------------------------------------------|
|---------------------8----------------------|--------------------8-----------------------|
|-7------9-----10-------10---9---9h10p9-|-7----9-----10-------10----9---9h10p9|
|---7-7---7-7----7----7----7--7-----------|---7-7--7-7----7---7-----7---7----------|
|---------------------------------------------|--------------------------------------------|
|---------------------------------------------|--------------------------------------------|

|----------------------------------|----------------------------------------|
|----------------------------------|----------------------------------------|
|-6-6----6-6----7-7----9-9-----|-10-10-----9-9-----7-7-----6-6-----|
|-----7-7----7-7----7-7----7-7-|--------7-7-----7-7-----7-7-----7-7-|
|----------------------------------|----------------------------------------|
|----------------------------------|----------------------------------------|
|
|--------------------------------------------------------------------------|
|--------------------------------------------------------------------------|
|------------------------Fazer igual guitarra 1------------------------|
|--------------------------------------------------------------------------|
|--------------------------------------------------------------------------|
|--------------------------------------------------------------------------|

|-------------------------------------------|-------------------------------------------|
|--------8----10--11--10---8--8h10p8-|--------8----10--11--10---8--8h10p8-|
|-10---------------------------------------|-10---------------------------------------|
|----7-7--7-7---7---7----7---7----------|----7-7--7-7---7---7----7---7----------|
|-------------------------------------------|-------------------------------------------|
|-------------------------------------------|-------------------------------------------|
|
|-------------------------------------------|-------------------------------------------|
|--------------------8---------------------|--------------------8----------------------|
|--7-----9----10-------10---9--9h10p9-|--7-----9----10------10---9--9h10p9-|
|----7-7--7-7---7---7-----7--7----------|----7-7--7-7---7---7----7--7-----------|
|-------------------------------------------|-------------------------------------------|
|-------------------------------------------|-------------------------------------------|

|----------------------------------|-------------------------------------|
|----------------------------------|-------------------------------------|
|-6-6----6-6----7-7----9-9-----|-7-7----7-7----9-9----10-10-----|
|-----7-7----7-7----7-7----7-7-|-----8-8----8-8----8-8-------8-8-|
|----------------------------------|-------------------------------------|
|----------------------------------|-------------------------------------|
|
|------------------------------------------------------------------------|
|------------------------------------------------------------------------|
|------------------------Fazer igual guitarra 1----------------------|
|------------------------------------------------------------------------|
|------------------------------------------------------------------------|
|------------------------------------------------------------------------|

|-------------------------------------|---------------------------------|
|-------------------------------------|---------------------------------|
|-7-7----7-7----9-9----10-10-----|-7-7----7-7----9-9----10-10-|
|-----7-7----7-7----7-7-------7-7-|-----5-5----5-5----5-5--------|
|-------------------------------------|---------------------------------|
|-------------------------------------|---------------------------------|
|
|-----------------------------------------------------------------------|
|-----------------------------------------------------------------------|
|------------------------Fazer igual guitarra 1---------------------|
|-----------------------------------------------------------------------|
|-----------------------------------------------------------------------|
|-----------------------------------------------------------------------|

|-------------------------------------------------|
|-------------------------------------------------|
|-10-------10-------10---14----14----14-14-|
|----10-10---10-10---10---9-9---9-9--------|
|-------------------------------------------------|
|-------------------------------------------------|
|
|-------------------------------------------------|
|-------------------------------------------------|
|--------------Fazer igual guitarra 1---------|
|-------------------------------------------------|
|-------------------------------------------------|
|-------------------------------------------------|

|--------------------------------------------|------------------------------------------|
|--------8----10--11--10---8---8h10p8-|--------8----10--11--10---8---8h10p8|
|-10----------------------------------------|-10--------------------------------------|
|----7-7--7-7---7---7----7---7-----------|----7-7--7-7---7---7----7---7---------|
|--------------------------------------------|------------------------------------------|
|--------------------------------------------|------------------------------------------|
|
|--------------------------------------------|------------------------------------------|
|--------------------8----------------------|--------------------8---------------------|
|-7------9-----10------10---9---9h10p9-|-7------9----10------10---9---9h10p9|
|---7-7---7-7----7--7-----7---7----------|---7-7---7-7---7---7----7---7---------|
|--------------------------------------------|------------------------------------------|
|--------------------------------------------|------------------------------------------|

|------------------------------------|----------------------------------------|
|----------------------------8-8----|-10-10----8-8------------------------|
|-9-9----9-9----10-10------------|--------------------10-10----9-9-----|
|-----7-7----7-7-------7-7----7-7|--------7-7----7-7-------7-7----7-7-|
|------------------------------------|----------------------------------------|
|------------------------------------|----------------------------------------|
|
|------------------------------------|----------------------------------------|
|------------------------------------|----------------------------------------|
|-6-6----6-6-----7---7----9-9----|-10-10----9-9-----7---7----6-6-----|
|-----7-7----7-7-------7-7----7-7|--------7-7----7-7-------7-7----7-7-|
|------------------------------------|----------------------------------------|
|------------------------------------|----------------------------------------|

|-----------------------------------------|------------------------------------------|
|--------8----10--11--10---8-8h10p8|---------8----10--11--10---8-8h10p8|
|-10-------------------------------------|-10--------------------------------------|
|----7-7--7-7---7---7----7------------|----7-7--7-7---7---7----7--------------|
|-----------------------------------------|------------------------------------------|
|-----------------------------------------|------------------------------------------|
|
|------------------------------------------|----------------------------------------|
|--------------------8--------------------|--------------------8-------------------|
|--7------9----10------10---9-9h10p9|-7------9----10-------10---9-9h10p9|
|-----7-7--7-7---7---7---7-------------|---7-7--7-7---7---7----7-------------|
|------------------------------------------|----------------------------------------|
|------------------------------------------|----------------------------------------|

|------------------------------------|---------------------------------------------|
|----------------------------8-8----|------------------------8-8----10-10------|
|-9-9----9-9----10-10------------|-10-10----10-10--------------------------|
|-----7-7----7-7-------7-7----7-7|--------8-8-------8-8-----8-8--------8-8-|
|------------------------------------|---------------------------------------------|
|------------------------------------|---------------------------------------------|
|
|-------------------------------------|--------------------------------------------|
|-------------------------------------|--------------------------------------------|
|-6-6----6-6-----7---7-----9-9----|-7---7-----7---7-----9-9----10-10------|
|-----7-7----7-7-------7-7-----7-7|-------8-8-------8-8-----8-8--------8-8-|
|-------------------------------------|--------------------------------------------|
|-------------------------------------|--------------------------------------------|

|------------------------------------------|---------------------------------------------|
|-----------------------8-8-----10-10---|--------------------------8-8----10-10----|
|-10-10----10-10-----------------------|-10-10-0-0-10-10-0-0----0-0-------0-0|
|--------7-7-------7-7----7-7-------7-7|---------------------------------------------|
|------------------------------------------|---------------------------------------------|
|------------------------------------------|---------------------------------------------|
|
|-------------------------------------------|----------------------------------------------|
|-------------------------------------------|----------------------------------------------|
|--7---7-----7---7----9-9-----10-10----|-7--7-0-0--7--7-0-0-9-9-0-0-10-10-0-0|
|--------7-7-------7-7----7-7--------7-7|----------------------------------------------|
|-------------------------------------------|----------------------------------------------|
|-------------------------------------------|----------------------------------------------|

|------------------------------8---8------8---8-----8----|-20b|
|-10-10----10---10---10------------10-------10---10|-----|
|--------10----------10---10----------------------------|-----|
|----------------------------------------------------------|-----|
|----------------------------------------------------------|-----|
|----------------------------------------------------------|-----|
|
|----------------------------------------------------------|--8b|
|------------------------------10-10-----10-10---10---|-----|
|-10-10-7--10---10-7-10-7--------10--------10---10|-----|
|----------------------------------------------------------|-----|
|----------------------------------------------------------|-----|
|----------------------------------------------------------|-----|
Composição de Andi Deris / Uli Kusch
Colaboração e revisão:
  • Valker Renato
4.027 exibições
    • ½ Tom
    • A
    • Bb
    • B
    • C
    • Db
    • D
    • Eb
    • E
    • F
    • F#
    • G
    • Ab
  • Adicionar à lista

    0 comentários

    Ver todos os comentários

    Conseguiu tocar?

    0 Tocaram 0 Ainda não

    Grave um vídeo tocando Wake Up the Mountain e nos envie!

    00:00 / 00:00
    Outros vídeos desta música
    Repetir Qualidade Automático
    Outros vídeos desta música
    00:00 / 00:00
    Automático

    Cifra Club Pro

    Aproveite o Cifra Club com benefícios exclusivos e sem anúncios
    Cifra Club Pro
    Aproveite o Cifra Club com benefícios exclusivos e sem anúncios
    OK