Cifra Club

Aprenda

We got the Right

Helloween

Cifra: Principal (violão e guitarra)
tom: A
Tuning: Standart

Bass adapted;

|---------|----------|---------------------------------------|
|-11 vezes|----------|---------------------------------------|
|---------|----------|---------------------------------------|
|---------|--------7-|---5---5---5---5---5---5---5---7-------|
|---2-3-2-|---2--5---|-3---3---3---3---3---3---3---5---7~~~~-|
|-0-------|-0--------|---------------------------------------|

  Riff 1 guitar;
|--------------------|----------------------|
|---2 vezes----------|----------------------|
|--------------------|----------------------|
|--------5-4-2---2h4-|--------5-4-2---2h4---|
|-2-2222-------5-----|-2-2222-------5-----2-|
|--------------------|----------------------|

Canto 1                                         Pm.....
|---------------|---------------|---------------|----------|
|---------------|---------------|---------------|----------|
|---------------|---------------|---------------|----------|
|---------4-----|---------2-----|---------4-----|-------2~-|
|-2-2-4-5---5-4-|-2-2-4-5---5-0-|-2-2-4-5---5-4-|-2-4-5-0~-|
|---------------|---------------|---------------|----------|

|---------------|---------------|--------------|--------------|
|---------------|---------------|--------------|--------------|
|---------------|---------------|--------------|--------------|
|---------4-----|---------------|--------------|--------------|
|-2-2-4-5---5-4-|-2-2-4-5-4-2---|---22-4-5-4-2-|---22-4-5-4-2-|
|---------------|-------------5-|-3------------|-3------------|

Pm    .......      .......      .......      .......
|------------|------------|------------|------------|
|------------|------------|------------|------------|
|------------|------------|------------|------------|
|-2~---------|-4~---------|-2~---------|-4~---------|
|-0~---4-5-4-|-2~---2---2-|-0~---4-5-4-|-2~---4-2---|
|------------|--------3---|------------|----------5-|

Ponte 1;
|-----3~-|-----2~-|-----3~-|------|----------|---------|-12~\-|
|-----3~-|-----2~-|-----3~-|------|----------|---------|-12~\-|
|--------|--------|--------|------|-11~------|-9~------|------|
|-5~-----|-4~-----|-5~-----|-7\---|-11~-(4~)-|-9~-(2~)-|------|
|-5~-----|-4~-----|-5~-----|-7\---|--9~-(4~)-|-7~-(2~)-|------|
|-3~-----|-2~-----|-3~-----|-5\---|-----(2~)-|----(0~)-|------|

Repetir a partir de riff 1;

Pré refrão; F# A B C# D A B E

Refrão;
|----------------|----------------|----------------|------------------|
|----------------|----------------|----------------|------------------|
|----------------|----------------|----------------|------------------|
|-----4~------4~-|-----7~------7~-|-----9~------9~-|-----11~------11~-|
|----------------|----------------|----------------|------------------|
|-2~------2~-----|-5~------5~-----|-7~------7~-----|-9~-------9~------|
                             ##
|------|------|------|------|------|
|------|------|------|------|------|
|------|------|------|------|------|
|-7~---|-7~---|-9~---|-2~---|-7~---|
|-5~---|-7~---|-9~---|-2~---|-7~---|
|------|-5~---|-7~---|-0~---|-5~---|

Duetos;
|--------------------------------|-----------|
|--------------------------------|-----------|
|----------3 vezes---------------|-----------|
|--------------------------------|-7~--------|Guitar 1
|-----------------------5~-------|-7~--------|
|-3--5---7~---77--5--3-------5~--|-5~--------|
|
|--------------------------------|-----------|
|--------------------------------|-----------|
|----------3 vezes---------------|-----------|
|--------------------------------|-----------|Guitar 2
|-7--9--10~-1010--9--7--12~------|-7~----12~-|
|----------------------------10~-|-----------|

|-------------------------------|-------------------------------|
|-------------------------------|-------------------------------|
|-------------------------------|-------------------------------|
|--------------------------2-2--|-------------------------------|Guitar 1
|-----------2-2--4-4--5-5-------|-5-5--4-4--2-2-----------------|
|-3-3--5-5----------------------|----------------5-5--3-3--2-2--|
|
|-------------------------------|-------------------------------|
|-------------------------------|-------------------------------|
|---------------------1111-1212-|-1111--------------------------|
|------1111-1212-1414-----------|------1414-1212-1111-1414-1212-|Guitar 2
|-1414--------------------------|-------------------------------|
|-------------------------------|-------------------------------|

|--------------------------------------|
|--------------------------------------|
|--------------------------------------|
|--------------------------2-2---2h4~--|Guitar 1
|-----------2-2--4-4--5-5--------------|
|-3-3--5-5-----------------------------|
|
|--------------------------------------|
|--------------------------------------|
|---------------------1111-1212-12h14~-|
|------1111-1212-1414------------------|Guitar 2
|-1414---------------------------------|
|--------------------------------------|

|---------------------------------------------------|
|---------------------------------------------------|
|---------------------------------------------------|
|--------------------------2-2----------------------|Guitar 1
|-----------2-2--4-4--5-5-------5-5--4-4--2-2-------|
|-3-3--5-5-------------------------------------5-5--|
|
|---------------------------------------------------|
|---------------------------------------------------|
|---------------------1111-1212-1111----------------|
|------1111-1212-1414----------------1414-1212-1111-|Guitar 2
|-1414----------------------------------------------|
|---------------------------------------------------|

|------------------------------------------|
|------------------------------------------|
|------------------------------------------|
|------------------------------------------|Guitar 1
|---------------------4-4--2-2-5-5-3-3-5-5-|
|-3-3--2-2--3-3--5-5-----------------------|
|
|------------------------------------------|
|------------------------------------------|
|------------------------------------------|
|------------------------------------------|Guitar 2
|-1414-1212-1010-9-9-----------------------|
|--------------------1212-1010-9-9-7-7-5-5-|

|-------------|----------------|-----|----------|
|-------------|----------------|-----|----------|
|-9-11-11h12~-|-12-11-9-11~----|-----|-9999-7-9-|
|-------------|-------------12-|-----|----------|
|-------------|----------------|-12~-|----------|
|-------------|----------------|-----|----------|

|---------------------------|----------------------|-----|-------------|
|-1212-1010-----------------|----------10----------|-----|-------------|
|-----------1212-11-9-9-7-7-|-12121212----12-11----|-----|----------14~|
|---------------------------|-------------------12-|-----|-11-12-14----|
|---------------------------|----------------------|-12~-|-------------|
|---------------------------|----------------------|-----|-------------|

|----------------|------------|----------------------7-9-10~-|
|-12121212-14-15-|-10~--------|---------------7-8-10---------|
|----------------|-----11-----|---------6-7-9----------------|
|----------------|--------12~-|---5-7-9----------------------|
|----------------|------------|-9----------------------------|
|----------------|------------|------------------------------|

|-7-7-9-9-1010-9-9-7-7-----------------------------|----------------|
|----------------------1010-8-8-7-7-8-8-7-7-5-5----|----------------|
|-----------------------------------------------7~-|-6~--4~---------|
|--------------------------------------------------|---------7~--5~-|
|--------------------------------------------------|----------------|
|--------------------------------------------------|----------------|

|--------|---------|---------|---------|---------|---------|--------|---------
|-10-8-7-|-12-10-8-|-8-7-5---|-10-8-7--|-7-5-3---|-8-7-5---|-10-8-7-|-10-9-7--
|--------|---------|---------|---------|---------|---------|--------|---------
|--------|---------|---------|---------|---------|---------|--------|---------
|-4 vezes|-4 vezes-|-4 vezes-|-4 vezes-|-4 vezes-|-4 vezes-|-4 vezes|-12 vezes
|--------|---------|---------|---------|---------|---------|--------|---------

Repete canto 1

|-----3~-|-----2~-|----|----------------|
|-----3~-|-----2~-|----|----------------|
|--------|--------|----|----------------|
|-5~-----|-4~-----|-5\-|-4~-------------|
|-5~-----|-4~-----|-5\-|-4~-(-------4~)-|
|-3~-----|-2~-----|-3\-|-2~-(-2-4-5---)-|

Repete refrão até ## e fazer D A B E D A

Final;
|-----------|----------|-------------|-------|-----------|
|-----------|----------|-------------|-------|-10\-------|
|-----------|----------|-------------|-------|--9\-------|
|-----------|----------|-------------|-------|--7\-------|
|-12-11--9~-|-9--7--5~-|-4--2-7~~~~~-|-------|-----------|
|-----------|----------|------5~~~~~-|-------|-----------|
|
|-----------|----------|-------------|-------|-----------|
|-----------|----------|-------------|-------|-----------|
|-----------|----------|------2~~~~~-|-------|-(2)-------|
|-----------|----------|------2~~~~~-|-------|-(2)-------|
|-9--7---5~-|-5--4--2~-|------0------|-------|-(0)-------|
|-----------|----------|-5--4--------|-------|-----------|

Ai pessoal, meu nome é Valker, consegui tirar essa música de ouvido, e desejo que todos vcs,
Fãs do helloween, consigam tirar essa música pois ela é sensacional, se alguém de vcs estiver afim
De manter contato comigo pelo MSN ou e-mail para falarmos sobre
musica e dividir opiniões, seria bem interessante...
Bom de todo jeito agradeço por terem lido isso e HEAVY METAL FOR ALL!!!!!!!!
Composição de Michael Kiske
Colaboração e revisão:
  • Valker Renato
4.843 exibições
    • ½ Tom
    • A
    • Bb
    • B
    • C
    • Db
    • D
    • Eb
    • E
    • F
    • F#
    • G
    • Ab
  • Adicionar à lista

    0 comentários

    Ver todos os comentários

    Conseguiu tocar?

    0 Tocaram 0 Ainda não

    Grave um vídeo tocando We got the Right e nos envie!

    00:00 / 00:00
    outros vídeos desta música
    repetir qualidade Automático
    Outros vídeos desta música
    00:00 / 00:00
    Automático

    Cifra Club Pro

    Aproveite o Cifra Club com benefícios exclusivos e sem anúncios
    Cifra Club Pro
    Aproveite o Cifra Club com benefícios exclusivos e sem anúncios
    OK