Cifra Club

Aprenda

Your Turn

Helloween

Cifra: Principal (violão e guitarra)
tom: A
Música também muito fácil! Para entender o ritmo, ouça o CD!

Start: A - A
A                  G#-  F#m
Now there is this day, a lot of things are changing
E                        C#
Can't just kick it away, got to get things right
 F#m                 G#-A
Sometimes it happens fast and nothin' seems to last
   D                                E
The thing that I once started isn't mine anymore
               F#m             E
I guess now it's my turn

Solo1:
|----------------|----------------|---------0------|
|----------------|----------------|---------2------|
|----------------|----------------|---------2------|
|----------------|----------------|0--------2------|
|----------------|0-----------0-2-|---------0------|
|0---0---0---0-2-|----------------|----------------|
 
     A                         G# -- F#m
You've got a face like a child, got a mind like a woman
     E                 C#
Your smile is warm and tender
 F#m                 G#-A
I hear the people say     that I should stay away
    D                                  E
From you and all the problems you might bring
E             F#m
They'll never know-you
F#m         E                                A
Nobody ever knows what to do, they'll never see you cry
      F#m         E
They'll never know why
F#m G#   D    E    F#m G#      A  --- G#
Now it's your turn to   break   free
F#m              E                 A
When you want it all you've got to see
F#m G#   D    E    F#m G#      A
Now it's your turn to   break free
        D            E           A                          G#      F#m
Don't know when you want the life you've got to see what it means
A                 G#- F#m
See the little boy     holding mama's hand
    D                                   E
His eyes can see the things we've long forgotten
    F#m              G#  A
The world is easy now     and somehow
     D                                    E
He's right until there is this day when Mickey Mouse must go away
G#   D    E    F#m G#      A  --- G#
It's your turn to   break   free
F#m              E                 A
When you want it all you've got to see
F#m G#   D    E    F#m  G#      A
Now it's your turn to   break free
        D            E           A                          G# 
Don't know when you want the life you've got to see what it means

Solo2:
|----------------|----------------|-----------------|-----------------|
|3-2-------------|2-3-2-----------|3-2--------------|-----------------|
|----2-----1-----|------2---------|----2-2-4-4------|-----------------|
|----------------|----------------|-----------------|4----2-----------|
|----------------|----------------|-----------------|-----------------|
|----------------|----------------|-----------------|-----------------|

|----0-------2---|4-2-0-----------|-----------------|-----------------|
|0-2-------------|------2-----2-0-|--0-2-2----------|--0-2---3---2-0--|
|----------------|----------------|2----------------|2---------------2|
|----------------|----------------|-----------------|-----------------|
|----------------|----------------|-----------------|-----------------|
|----------------|----------------|-----------------|-----------------|
                 Overdrive.
|----------------|----------9--10-9-|-----------------|-----------------|
|3---2-3-5-5-----|10--9-------------|12------10---10--|101010-9---999-7-|
|----------------|------------------|-----------------|-----------------|
|----------------|------------------|-----------------|-----------------|
|----------------|------------------|-----------------|-----------------|
|----------------|------------------|-----------------|-----------------|

|----------------|----------------|-----------------||
|777-------------|----------------|-----------------||
|----9-----------|----------------|-----------------||
|--------999-7---|777-6-6-4-4-2---|2-0--------------||
|----------------|----------------|----2------------||
|----------------|----------------|-----------------||
 
              A
This world is crying to be free
      G#      F#m                     D
This world is dying can't you see
                        E
We need a turn to do it right
                  F#m
We need a mind-revolution
                     Bm
To get away from this selfishness
             D            E
Stop playing blind--break free
G#   D    E    F#m G#      A  --- G#
It's your turn to   break   free
F#m              E                 A
When you want it all you've got to see
F#m G#   D    E    F#m G#      A
Now it's your turn to   break free
        D            E                          A           G# 
Don't know when you want the life you've got to see what it means 

End: A - A - A - A
Composição de Michael Kiske
Colaboração e revisão:
  • Bruno Esteves
  • Hubner Fernandes
  • Jesus Cardoso
23.906 exibições
    • ½ Tom
    • A
    • Bb
    • B
    • C
    • Db
    • D
    • Eb
    • E
    • F
    • F#
    • G
    • Ab
  • Adicionar à lista

    0 comentários

    Ver todos os comentários

    Conseguiu tocar?

    7 Tocaram 0 Ainda não

    Grave um vídeo tocando Your Turn e nos envie!

    00:00 / 00:00
    Outros vídeos desta música
    Repetir Qualidade Automático
    Outros vídeos desta música
    00:00 / 00:00
    Automático

    Cifra Club Pro

    Aproveite o Cifra Club com benefícios exclusivos e sem anúncios
    Cifra Club Pro
    Aproveite o Cifra Club com benefícios exclusivos e sem anúncios
    OK