Cifra Club

Moth

Hellyeah

Cifra: Principal (violão e guitarra)
Selo Cifra Club: esta cifra foi revisada para atender aos critérios oficiais da nossa Equipe de Qualidade.
tom: F
                  (Listen for strumming pattern)
E|---------------------------------------------------------------------------|
B|---------------------6-6-5-5-5---------------------------------------------|
G|---------------------5-5-5-5-5---------------------------------------------|
D|---0-0-0-0-0-0-3-3-3-3-3-3-3-3-3-5-5---------------------------------------|
A|---0-0-0-0-0-0-3-3-3-3-3-3-3-3-3-5-5---------------------------------------|
E|---0-0-0-0-0-0-3-3-3-3-3-3-3-3-3-5-5---------------------------------------|
                                   * *



                  
                    ***CLEAN***     (Verse Riff) 
E|---------------------------------------------------------------------------------------|
B|---------------------------------------------------------------------------------------|
G|---------------------------------------------------------------------------------------|
D|---------------------------------------------------------------------------------------|
A|----8-7h8----8-7h8----8-7h8----8-7h8-----12-10h12----12-10h12----12-10h12----12-10h12--|
E|--0--------0--------0--------0---------0-----------0-----------0-----------0-----------| x4




               ***DISTORTED***  (Verse Riff)
E|--------------------------------------------------------------------------------------|
B|----------------P| A Y THIS AFTER 2 CYCLES OF THE CLEAN RIFF----------------------------|
G|--------------------------------------------------------------------------------------|
D|--8-----------------------------------0-----------------------------------------------|
A|--8-----------------------------------0-----------------------------------------------|
E|--8-----------------------------------0-----------------------------------------------| x2





                        
                                 (Chorus)
E|--------------------------------------------------------------------------------------|
B|--------------------------------------------------------------------------------------|
G|--------------------------------------------------------------------------------------|
D|--8-8-8-8---8-8-8-8-7-5-0-0-0-0--------3-3-3-3-3-3------------------------------------|
A|--8-8-8-8---8-8-8-8-7-5-0-0-0-0--------3-3-3-3-3-3------------------------------------|
E|--8-8-8-8---8-8-8-8-7-5-0-0-0-0----3h5-3-3-3-3-3-3------------------------------------| x2
        *         *           *              * 


E|-----| LISTEN FOR STRUME NG PATTERN ON SECOND HALF, I C NT HAVE MUCH SPACE LOL----------|
B|--------------------------------------------------------------------------------------|
G|--------------------------------------------------------------------------------------|
D|--8-8-8-8---8-8-8-8-7-5-0-0-0-0--------3-3-3-3-3-3/10-10-10--5-5-5-5-5-7-7-8-8-8-8-7--|
A|--8-8-8-8---8-8-8-8-7-5-0-0-0-0--------3-3-3-3-3-3/10-10-10--5-5-5-5-5-7-7-8-8-8-8-7--|
E|--8-8-8-8---8-8-8-8-7-5-0-0-0-0----3h5-3-3-3-3-3-3/10-10-10--5-5-5-5-5-7-7-8-8-8-8-7--|
        *         *           *              * 






                   

                      ***CLEAN***     (Verse Riff) 
E|---------------------------------------------------------------------------------------|
B|---------------------------------------------------------------------------------------|
G|---------------------------------------------------------------------------------------|
D|---------------------------------------------------------------------------------------|
A|----8-7h8----8-7h8----8-7h8----8-7h8-----12-10h12----12-10h12----12-10h12----12-10h12--|
E|--0--------0--------0--------0---------0-----------0-----------0-----------0-----------| x4




               ***DISTORTED***  (Verse Riff)
E|--------------------------------------------------------------------------------------|
B|----------------P| A Y THIS AFTER 2 CYCLES OF THE CLEAN RIFF----------------------------|
G|--------------------------------------------------------------------------------------|
D|--8-----------------------------------0-----------------------------------------------|
A|--8-----------------------------------0-----------------------------------------------|
E|--8-----------------------------------0-----------------------------------------------| x2






                 

                                (Chorus)
E|--------------------------------------------------------------------------------------|
B|--------------------------------------------------------------------------------------|
G|--------------------------------------------------------------------------------------|
D|--8-8-8-8---8-8-8-8-7-5-0-0-0-0--------3-3-3-3-3-3------------------------------------|
A|--8-8-8-8---8-8-8-8-7-5-0-0-0-0--------3-3-3-3-3-3------------------------------------|
E|--8-8-8-8---8-8-8-8-7-5-0-0-0-0----3h5-3-3-3-3-3-3------------------------------------| x2
        *         *           *              * 


E|-----| LISTEN FOR STRUME NG PATTERN ON SECOND HALF, I C NT HAVE MUCH SPACE LOL----------|
B|--------------------------------------------------------------------------------------|
G|--------------------------------------------------------------------------------------|
D|--8-8-8-8---8-8-8-8-7-5-0-0-0-0--------3-3-3-3-3-3/10-10-10--5-5-5-5-5-7-7-8-8-8-8-7--|
A|--8-8-8-8---8-8-8-8-7-5-0-0-0-0--------3-3-3-3-3-3/10-10-10--5-5-5-5-5-7-7-8-8-8-8-7--|
E|--8-8-8-8---8-8-8-8-7-5-0-0-0-0----3h5-3-3-3-3-3-3/10-10-10--5-5-5-5-5-7-7-8-8-8-8-7--|
        *         *           *              * 





                       (Intro Riff) 

                  (Listen for strumming pattern)
E|---------------------------------------------------------------------------|
B|---------------------6-6-5-5-5---------------------------------------------|
G|---------------------5-5-5-5-5---------------------------------------------|
D|---0-0-0-0-0-0-3-3-3-3-3-3-3-3-3-5-5---------------------------------------|
A|---0-0-0-0-0-0-3-3-3-3-3-3-3-3-3-5-5---------------------------------------|
E|---0-0-0-0-0-0-3-3-3-3-3-3-3-3-3-5-5---------------------------------------| x2
                                   * *

                       (Bridge)
                  (Listen for strumming pattern)
E|-----------------------------------------------------------------------------------------------|
B|---------------------------------------6-6-5-5-5-----------------------------------------------|
G|---------------------------------------5-5-5-5-5-----------------------------------------------|
D|---0-0-0-0-0-0-0---0-0-0-0-0-0-0---3-3-3-3-3-3-3-3-3-5-5---------------------------------------|
A|---0-0-0-0-0-0-0---0-0-0-0-0-0-0---3-3-3-3-3-3-3-3-3-5-5---------------------------------------|
E|---0-0-0-0-0-0-0---0-0-0-0-0-0-0---3-3-3-3-3-3-3-3-3-5-5---------------------------------------| x2
     * * * * * * *   * * * * * * *                     * *



E|----------------------------------------------------------------------------------------------|
B|----------------------------------------------------------------------------------------------|
G|----------------------------------------------------------------------------------------------|
D|---8-8-8-8-8-8-8---8-8-8-8---0-0-0-0---0-0-0-0---8-8-8-8---8-8-8-8---0-0-0-0---3-3-3-3--8-----|
A|---8-8-8-8-8-8-8---8-8-8-8---0-0-0-0---0-0-0-0---8-8-8-8---8-8-8-8---0-0-0-0---3-3-3-3--8-----|
E|---8-8-8-8-8-8-8---8-8-8-8---0-0-0-0---0-0-0-0---8-8-8-8---8-8-8-8---0-0-0-0---3-3-3-3--8-----|
     * * * * * * *       *         *         *         *         *         *





E|--------------------------------------------------------------------------------------|
B|--------------------------------------------------------------------------------------|
G|--------------------------------------------------------------------------------------|
D|--8-8-8-8---8-8-8-8-7-5-0-0-0-0--------3-3-3-3-3-3------------------------------------|
A|--8-8-8-8---8-8-8-8-7-5-0-0-0-0--------3-3-3-3-3-3------------------------------------|
E|--8-8-8-8---8-8-8-8-7-5-0-0-0-0----3h5-3-3-3-3-3-3------------------------------------| x2
        *         *           *              * 


E|-----| LISTEN FOR STRUME NG PATTERN ON SECOND HALF, I C NT HAVE MUCH SPACE LOL----------|
B|--------------------------------------------------------------------------------------|
G|--------------------------------------------------------------------------------------|
D|--8-8-8-8---8-8-8-8-7-5-0-0-0-0--------3-3-3-3-3-3/10-10-10--5-5-5-5-5-7-7-8-8-8-8-7--|
A|--8-8-8-8---8-8-8-8-7-5-0-0-0-0--------3-3-3-3-3-3/10-10-10--5-5-5-5-5-7-7-8-8-8-8-7--|
E|--8-8-8-8---8-8-8-8-7-5-0-0-0-0----3h5-3-3-3-3-3-3/10-10-10--5-5-5-5-5-7-7-8-8-8-8-7--|
        *         *           *              * 





                       (Outro Riff) 

                  (Listen for strumming pattern)
E|---------------------------------------------------------------------------|
B|---------------------6-6-5-5-5---------------------------------------------|
G|---------------------5-5-5-5-5---------------------------------------------|
D|---0-0-0-0-0-0-3-3-3-3-3-3-3-3-3-5-5---------------------------------------|
A|---0-0-0-0-0-0-3-3-3-3-3-3-3-3-3-5-5---------------------------------------|
E|---0-0-0-0-0-0-3-3-3-3-3-3-3-3-3-5-5---------------------------------------| x2
                                   * *
Outros vídeos desta música
    85 exibições
      • ½ Tom
      • A
      • Bb
      • B
      • C
      • Db
      • D
      • Eb
      • E
      • F
      • F#
      • G
      • Ab
    • Adicionar à lista

    Afinação da cifra

    Afinador online

      0 comentários

      Ver todos os comentários

      Entre para o Cifra Club PRO

      Tenha acesso a benefícios exclusivos no App e no Site

      • Chega de anúncios

      • Badges exclusivas

      • Mais recursos no app do Afinador

      • Atendimento Prioritário

      • Aumente seu limite de lista

      • Ajude a produzir mais conteúdo

      Cifra Club Pro

      Aproveite o Cifra Club com benefícios exclusivos e sem anúncios
      Cifra Club Pro
      Aproveite o Cifra Club com benefícios exclusivos e sem anúncios
      Ops (: Contenido disponible sólo en portugués.
      OK