Cifra Club

Vaidade

Heloísa Rosa

Cifra: Principal
exibições 231.111
Tom: E
Intro: A9  E  C#m  B

E|-------------------------------------------------|
B|---5---5/7--7/9--5---5/7--7/9---5--5/7--7/9------|
G|----4-------------4--------------4---------8-----|
D|-------------------------------------------------|
A|-------------------------------------------------|
E|-------------------------------------------------|

E                    A9
Busco na vida tantas coisas, que nem sei porque razão
E                  A9                    E      A9
Fortaleço minha vontade pra que tudo aconteça,    do meu jeito
E                  A9
Corro enquanto acredito, persisto até chegar ao fim
E                     A9                        E     A9
Pra descobrir lá no final que eu corri atrás do vento
  F#m                 E               B
O que eu preciso, os homens não podem dar
  F#m                 E                B
O que eu preciso, a  prata não vai comprar
  F#m                 E               B
O que eu preciso, o  mundo não pode dar
  F#m             E            A9          B
O que eu preciso, é habitar contigo.... Oh Deus!


       E                 A9
Atraia-me, para perto de Ti
        F#m         B
Esconda-me,      oh Deus!        (2x)
       E                 A9
Atraia-me, para perto de Ti
        C#m    B
Esconda-me, oh Deus

Solo: A9  E  C#m  B

        A9                  E           C#m          B
Esconda-me, Senhor! Esconda-me! Esconda-me, Senhor!

Solo: A9  E  C#m  B

        A9                    E               C#m    B
Esconda-me do Pecado! Esconda-me deste Mundo
        A9            E   C#m   B
Esconda-me, Senhor!

Final: A9 E C#m B

E|-------------------------------------------------|
B|---5---5/7--7/9--5---5/7--7/9---5--5/7--7/9------|
G|----4-------------4--------------4---------8-----|
D|-------------------------------------------------|
A|-------------------------------------------------|
E|-------------------------------------------------|

0 comentários

    mostrar mais comentários

    Conseguiu tocar?

    21tocaram1ainda não

    Grave um vídeo tocando Vaidade e mande pra gente!

    00:00 / 00:00
    outros vídeos desta música
    repetirqualidadeautomática
    Outro vídeos desta música
      00:00 / 00:00
      automática
      OK