Cifra Club

Aprenda

Hoje

Henrique Cerqueira

Cifra: Principal (violão e guitarra)
tom: G
 G
Hoje.
 D/F#        Em
Doeu no meu peito.
 D/F#           C
Não ver teu sorriso.
  G/B         Am   C/D
Por eu te magoar.

(G,D/F#,Em,D/F#,C,G/B,Am)
Hoje.
Eu angustiado.
Pois via apagado.
O brilho do teu olhar.

F/C
Hoje.
 C                 F/C
Nós dois nos abrindo mais.
 C                 F/C
Nós dois descobrindo mais.
 C           F/C
Pra não nos fechar.
 C                F/C
Pois sim, nem só de carinhos.
 C             F/C
Nem só de beijinhos.
 G       D
O amor viverá.

(G,D/F#,Em,D/F#,C,G/B,Am)
Pra nós.
É mais importante.
Como nós agimos.
Na hora da dor.
Acho lidar com a verdade.
Com sincerade.
Ser base pro nosso amor.

(G,Am7,Bm,C,Em,D/F#,C)
Eu quero estar crescendo do teu lado.
Eu quero estar crescendo do teu lado.
Eu quero estar crescendo do teu lado.

(G,Am7,Bm,C,Em,D/F#,C)
Eu quero ser o teu melhor amigo.
Eu quero ser o eterno apaixonado.
Eu quero estar crescendo do teu lado.

(G,Am7,Bm,C,Em,D/F#,C)
Eu quero desvendar os seus mistérios.
Você pra mim é um caso muito sério.
Eu quero estar crescendo do teu lado.
Se o teu coração não se fechar pra mim.
Se o teu coração se abrir muito mais.
Eu quero estar crescendo do seu lado.

Solo
E|-------------------------------------------------------------------
B|----------7---8----------------------------------------------------
G|------7-9-------7-7h9-----------7----------------------------------
D|--7-9---------------------7h9-7---9--9-7-5-------------------------
A|--------------------------------------------7-5-7/9----------------
E|-------------------------------------------------------------------

E|-------------------------------------------------------------------
B|---------8-10/12-10-8-10-----8--8/10\10\8--8-10/12-----------------
G|-----7-9-----------------7-9----7/9\9\7----------------------------
D|-7-9---------------------------------------------------------------
A|-------------------------------------------------------------------
E|-------------------------------------------------------------------

E|-12-10--12-10-12-10-12-10-12/14--14p12-----------------------------
B|---------------------------------------14-12-10-12-10/12-----------
G|-------------------------------------------------------------------
D|-------------------------------------------------------------------
A|-------------------------------------------------------------------
E|-------------------------------------------------------------------
Composição de Henrique Cerqueira
Colaboração e revisão:
  • Eduardo Figueiredo
3.659 exibições
    • ½ Tom
    • A
    • Bb
    • B
    • C
    • Db
    • D
    • Eb
    • E
    • F
    • F#
    • G
    • Ab
  • Adicionar à lista

    0 comentários

    Ver todos os comentários

    Conseguiu tocar?

    1 Tocaram 1 Ainda não

    Grave um vídeo tocando Hoje e nos envie!

    00:00 / 00:00
    Outros vídeos desta música
    Repetir Qualidade Automático
    Outros vídeos desta música
    00:00 / 00:00
    Automático

    Cifra Club Pro

    Aproveite o Cifra Club com benefícios exclusivos e sem anúncios
    Cifra Club Pro
    Aproveite o Cifra Club com benefícios exclusivos e sem anúncios
    OK