Cifra Club

Calafrio

Henrique e Juliano

Cifra: Principal (violão e guitarra)
Tom: G
Intro: 
( Em7(9) C4+  G  D )
( Em7(9) C4+  G  D5 )

Intro:
Parte 1:
  Em7(9)     C4+       G          D
E|-2-----3----2-----3-----------------------|
B|-----3---3------3----3-----1-0------------|
G|---0----------0----------0------2-----0---|
D|-----------------------0------------4---4-|
A|------------3---------------------5-------|
E|-0-------------------3--------------------|

Parte 2:
  Em7(9)     C4+       G          D5
E|-2-----3----2-----3-----------------------|
B|-----3---3------3----3-----1-0------------|
G|---0----------0----------0------2---------|
D|-----------------------0--------0---------|
A|------------3-----------------------------|
E|-0-------------------3--------------------|

Primeira Parte:
G
  Os nossos corpos se completam 
               C
Mesmo estando longe
         Cm                 G
Em pensamento eu vou te buscar

Dá calafrio, um arrepio 
                 C
Ao lembrar seu cheiro
      Cm                 G
Pela porta do quarto entrar

                          G/B
Sinto um silêncio e um vazio
             C
Bate o desespero
            Cm              G
Não vejo a hora de você voltar
                    G/B
E no espelho ainda tem 
               C
Escrito em vermelho
                  Cm
Dentro de um coração
              G  D
"Tô indo embora"

Dedilhado Primeira Parte:

Parte 1 (2x):
  G                 C       Cm
E|------------------------------------------|
B|-0---0---0---0----1---1----4---4----------|
G|-0---0---0---0----0---0----5---5----------|
D|---0---0---0---0----2---2----5---5--------|
A|------------------3--------3--------------|
E|-3----------------------------------------|

Parte 2 (2x):
  G       G/B       C       Cm
E|------------------------------------------|
B|-0---0---0---0----1---1----4---4----------|
G|-0---0---0---0----0---0----5---5----------|
D|---0---0---0---0----2---2----5---5--------|
A|---------2--------3--------3--------------|
E|-3----------------------------------------|

Parte 3:
  G         D
E|----------2---2---------------------------|
B|-0---0----3---3---------------------------|
G|-0---0------2---2-------------------------|
D|---0---0--0-------------------------------|
A|------------------------------------------|
E|-3----------------------------------------|

Refrão:
                   C9
Pra nunca mais voltar

Foi tão difícil suportar
                     G            D
A dor de ouvir o seu adeus, seu adeus

                  C9
Eu não vou mais chorar

Eu sei, você quer me amar
                              G
Eu vou deixar o tempo te mostrar
       D
Que o seu amor sou eu

                    C9
Eu não vou mais chorar

Eu sei, você quer me amar
                              G
Eu vou deixar o tempo te mostrar
       D                   C9
Que o seu amor sou eu, sou eu

Repete Intro:
( Em7(9) C4+  G  D )
( Em7(9) C4+  G  D5 )

Primeira Parte:
G                           G/B
  Sinto um silêncio e um vazio
             C9
Bate o desespero
            Cm              G
Não vejo a hora de você voltar
                    G/B
E no espelho ainda tem 
               C9
Escrito em vermelho
                  Cm
Dentro de um coração
              G  D
Tô indo embora

Refrão:
                   C9
Pra nunca mais voltar

Foi tão difícil suportar
                     G            D
A dor de ouvir o seu adeus, seu adeus

                  C9
Eu não vou mais chorar

Eu sei, você quer me amar
                              G
Eu vou deixar o tempo te mostrar
       D
Que o seu amor sou eu

                    C9
Eu não vou mais chorar

Eu sei, você quer me amar
                              G
Eu vou deixar o tempo te mostrar
       D                   C9
Que o seu amor sou eu, sou eu

Final:
  Em7(9)     C4+       G         D/F#   G
E|-2-----3----2-----3-----------------------|
B|-----3---3------3----3-----1-0--------3---|
G|---0----------0----------0------2-----0---|
D|-----------------------0--------0-----0---|
A|------------3-----------------------------|
E|-0-------------------3----------2-----3---|
exibições 507.525
Acordes para:
    Composição: Victor Hugo Colaboração e revisão:

    0 comentários

    mostrar mais comentários

    Conseguiu tocar?

    23 tocaram 2 ainda não

    Grave um vídeo tocando Calafrio e mande pra gente!

    00:00 / 00:00
    outros vídeos desta música
    repetir qualidade Automático
    Outros vídeos desta música
    00:00 / 00:00
    Automático
    Capítulos
    • Tocando a Música
    • Dicas iniciais / Equipamentos
    • Acordes da Introdução
    • Introdução
    • Introdução - Parte 1 de 2
    • Introdução - Parte 2 de 2
    • Dicas Primeira Parte
    • Primeira Parte
    • Ensinando Primeira Parte -Parte 1 de 3
    • Ensinando Primeira Parte -Parte 2 de 3
    • Ensinando Primeira Parte -Parte 3 de 3
    • Dicas Refrão
    • Tocando Refrão
    • Ensinando Refrão
    • Dicas Segunda Parte
    • Segunda Parte
    • Ensinando Segunda Parte
    • Dicas Segundo Refrão
    • Segundo Refrão
    • Ensinando Segundo Refrão
    • Dicas Parte Final (Variação da Introdução)
    • Final (Variação)
    • Ensinando Variação
    • Dicas Finais / Encerramento
    • Ficha Técnica
    OK