Cifra Club

Aprenda

Em Cada Beijo

Henrique e Juliano

Cifra: Principal (violão e guitarra)
tom: A
Intro: A  E  Bm  D  E
Solo:
E|--------------------------------------------------|
B|---------------------5---5/7-5---7/9-9-7-9/10-9-7-|
G|-4/6-6-4-6/7-6-4-6-4---4--------------------------|
D|--------------------------------------------------|
A|--------------------------------------------------|
E|--------------------------------------------------|

E|----------7/10-10-10-10-9-7-----------7/9-7------|
B|------------------------------10-10-7------------|
G|-9-7-6-4-----------------------------------------|
D|-------------------------------------------------|
A|-------------------------------------------------|
E|-------------------------------------------------|

F#m
Quantas pessoas você fez chorar?
A
Quantos corações você machucou?
E                                       Bm
Me diz quantas foram as vítimas do seu olhar
       D        E           F#m
Eu sei que você não se importou

                       E        D
Em alimentar as esperanças de alguém
                                  A
Fingir que ama só pra poder se dá bem
                       E
Eu tenho medo de acreditar
F#m                        E       D
No sentimento que você diz ter por mim
                                       A
Só que faz tempo que eu não me sentia assim
                         E
Já não tô conseguindo evitar

Refrão:
A                                     E
De onde vem esse desejo que me deixa louco?
                                  Bm
Essa mistura de amor safado e gostoso
          D               A          E
Que me desmonta só de te olhar, ai ai ai...

A
Eu não consigo entender esse meu coração
E                                         Bm
Eu vou tentando me afastar e ele dizendo não
                        D           E     A
Eu perco o medo em cada beijo que você dá.

Intro: ( A  E  Bm  D  E )
Solo:
E|--------------------------------------------------|
B|---------------------5---5/7-5---7/9-9-7-9/10-9-7-|
G|-4/6-6-4-6/7-6-4-6-4---4--------------------------|
D|--------------------------------------------------|
A|--------------------------------------------------|
E|--------------------------------------------------|

E|----------7/10-10-10-10-9-7-----------7/9-7------|
B|------------------------------10-10-7------------|
G|-9-7-6-4-----------------------------------------|
D|-------------------------------------------------|
A|-------------------------------------------------|
E|-------------------------------------------------|

F#m                    E        D
Em alimentar as esperanças de alguém
                                  A
Fingir que ama só pra poder se dá bem
                       E
Eu tenho medo de acreditar
F#m                        E       D
No sentimento que você diz ter por mim
                                       A
Só que faz tempo que eu não me sentia assim
                         E
Já não tô conseguindo evitar

Refrão: (2x)

A                                     E
De onde vem esse desejo que me deixa louco?
                                 Bm
Essa mistura de amor safado e gostoso
          D               A          E
Que me desmonta só de te olhar, ai ai ai...

A
Eu não consigo entender esse meu coração
E                                         Bm
Eu vou tentando me afastar e ele dizendo não
                        D           E    A      D  E  A
Eu perco o medo em cada beijo que você dá.
Solo:
E|-7/9-9-7-9/10-9-7----------7/9-7---5-5-|
B|--------------------10-7---------------|
G|---------------------------------------|
D|---------------------------------------|
A|---------------------------------------|
E|---------------------------------------|
Colaboração e revisão:
  • Ivan Cipriano
  • Leonardo Cesar
64.192 exibições
    • ½ Tom
    • A
    • Bb
    • B
    • C
    • Db
    • D
    • Eb
    • E
    • F
    • F#
    • G
    • Ab
  • Adicionar à lista

    0 comentários

    Ver todos os comentários
    00:00 / 00:00
    outros vídeos desta música
    repetir qualidade Automático
    Outros vídeos desta música
    00:00 / 00:00
    Automático

    Cifra Club Pro

    Aproveite o Cifra Club com benefícios exclusivos e sem anúncios
    Cifra Club Pro
    Aproveite o Cifra Club com benefícios exclusivos e sem anúncios
    OK