Cifra Club

Flor e o Beija-flor (part. Marília Mendonça)

Henrique e Juliano

Cifra: Principal (violão e guitarra)
exibições 3.736.214
Tom: C
Intro: C  G  Dm  F

Dedilhado Parte 1 de 3
          C        G
E|------------------------------------------|
B|-------1--------3------------3------------|
G|-----0--------0---0--------0---0----------|
D|---2--------0-------0----0-------0--------|
A|-3----------------------------------------|
E|----------3------------3------------------|

Dedilhado Parte 2 de 3
          Dm
E|-------1------------1---------------------|
B|-----3---3--------3---3-------------------|
G|---2-------2----2-------2-----------------|
D|-0------------0---------------------------|
A|------------------------------------------|
E|------------------------------------------|

Dedilhado Parte 3 de 3
          F
E|------------------------------------------|
B|-------1------------1---------------------|
G|-----2---2--------2---2-------------------|
D|---3-------3----3-------3-----------------|
A|------------------------------------------|
E|-1------------1---------------------------|


Intro - Solo (Violão 2):
Parte 1 de 3
E|-------0--3-1-0-1-1p0-------------------------------|
B|-1---1----------------1-1/3---3---------------------|
G|---0------------------------0---0-------------------|
D|----------------------------------------------------|
A|----------------------------------------------------|
E|----------------------------------------------------|

Parte 2 de 3
E|----------------------------------------------------|
B|-3--------------------------------------------------|
G|---5-4-5-5p4---------7------------------------------|
D|-------------5-5/7-7--------------------------------|
A|----------------------------------------------------|
E|----------------------------------------------------|

Parte 3 de 3
E|-1-1/3-3/5-5---------8------13----------------------|
B|-3-3/5-5/6-6/10-------------------------------------|
G|------------------10------14------------------------|
D|----------------------------------------------------|
A|----------------------------------------------------|
E|----------------------------------------------------|

Primeira Parte:
Parte 1 de 3
          C            G
E|------------------------------------------|
B|-------1------------3---------------------|
G|-----0---0--------0---0-------------------|
D|---2-------2----0-------0-----------------|
A|-3----------------------------------------|
E|--------------3---------------------------|

Parte 2 de 3
          Am                   G/B
E|------------------------------------------|
B|-------1------------1--3------------------|
G|-----2---2--------2----0------------------|
D|---2-------2----2------0------------------|
A|-0------------0--------2------------------|
E|------------------------------------------|

Repete Parte 1 de 3
          C            G
E|------------------------------------------|
B|-------1------------3---------------------|
G|-----0---0--------0---0-------------------|
D|---2-------2----0-------0-----------------|
A|-3----------------------------------------|
E|--------------3---------------------------|

Parte 3 de 3
          Am
E|------------------------------------------|
B|-------1------------1---------------------|
G|-----2---2--------2---2-------------------|
D|---2-------2----2-------2-----------------|
A|-0------------0---------------------------|
E|------------------------------------------|

C                    G
Essa é uma velha história
                  Am
De uma flor e um beija-flor
               G/B  C
Que conheceram o  amor
      G               Am
Numa noite fria de outono

Pré-refrão:
Parte 1 de 5
          Dm
E|-------1------------1---------------------|
B|-----3---3--------3---3-------------------|
G|---2-------2----2-------2-----------------|
D|-0------------0---------------------------|
A|------------------------------------------|
E|------------------------------------------|

Parte 2 de 5
          Am
E|------------------------------------------|
B|-------1------------1---------------------|
G|-----2---2--------2---2-------------------|
D|---2-------2----2-------2-----------------|
A|-0------------0---------------------------|
E|------------------------------------------|

Parte 3 de 5
          F
E|------------------------------------------|
B|-------1------------1---------------------|
G|-----2---2--------2---2-------------------|
D|---3-------3----3-------3-----------------|
A|------------------------------------------|
E|-1------------1---------------------------|

Parte 4 de 5
          G
E|------------------------------------------|
B|-------3------------3---------------------|
G|-----0---0--------0---0-------------------|
D|---0-------0----0-------0-----------------|
A|------------------------------------------|
E|-3------------3---------------------------|

Repete Parte 1 de 5
          Dm
E|-------1------------1---------------------|
B|-----3---3--------3---3-------------------|
G|---2-------2----2-------2-----------------|
D|-0------------0---------------------------|
A|------------------------------------------|
E|------------------------------------------|

Repete Parte 3 de 5
          F
E|------------------------------------------|
B|-------1------------1---------------------|
G|-----2---2--------2---2-------------------|
D|---3-------3----3-------3-----------------|
A|------------------------------------------|
E|-1------------1---------------------------|

Repete Parte 1 de 5
          Dm
E|-------1------------1---------------------|
B|-----3---3--------3---3-------------------|
G|---2-------2----2-------2-----------------|
D|-0------------0---------------------------|
A|------------------------------------------|
E|------------------------------------------|

Parte 5 de 5
          G
E|--------------3---------------------------|
B|-------3------3---------------------------|
G|-----0---0----0---------------------------|
D|---0-------0------------------------------|
A|------------------------------------------|
E|-3----------------------------------------|

                        Dm
E as folhas caídas no chão
                        Am
Da estação que não tem cor
                           F
E a flor conhece o beija-flor
                        G
E ele lhe apresenta o amor

                        Dm
E diz que o frio é uma fase ruim
                               F
Que ela era a flor mais linda do jardim
                    Dm
E a única que suportou
                    G
Merece conhecer o amor e todo seu calor

Refrão:
          C
E|-------0------------0---------------------|
B|-----1---1--------1---1-------------------|
G|---0-------0----0-------0-----------------|
D|------------------------------------------|
A|-3------------3---------------------------|
E|------------------------------------------|


C                            G
Ai que saudade de um beija-flor
                       Dm
Que me beijou depois voou
             F
Pra longe demais
              C
Pra longe de nós

                      G
Saudade de um beija-flor
                          Dm
Lembranças de um antigo amor
                     F
O dia amanheceu tão lindo
                      C    G  Dm  F
Eu durmo e acordo sorrindo

Primeira Parte:

C                    G
Essa é uma velha história
                  Am
De uma flor e um beija-flor
               G/B  C
Que conheceram o  amor
      G               Am
Numa noite fria de outono

Pré-refrão:

                        Dm
E as folhas caídas no chão
                        Am
Da estação que não tem cor
                           F
E a flor conhece o beija-flor
                        G
E ele lhe apresenta o amor

                        Dm
E diz que o frio é uma fase ruim
                               F
Que ela era a flor mais linda do jardim
                    Dm
E a única que suportou
                    G
Merece conhecer o amor e todo seu calor

Refrão:

C                            G
Ai que saudade de um beija-flor
                       Dm
Que me beijou depois voou
             F
Pra longe demais
              C
Pra longe de nós

                      G
Saudade de um beija-flor
                          Dm
Lembranças de um antigo amor
                     F
O dia amanheceu tão lindo
                      C    G  Dm
Eu durmo e acordo sorrindo
                     F
O dia amanheceu tão lindo
                      C
Eu durmo e acordo sorrindo

Final:
          C
E|-------0------0---------------------------|
B|-----1---1----1---------------------------|
G|---0-------0--0---------------------------|
D|--------------2---------------------------|
A|-3------------3---------------------------|
E|------------------------------------------|

0 comentários

mostrar mais comentários
00:00 / 00:00
outros vídeos desta música
repetir qualidade Automático
Outro vídeos desta música
00:00 / 00:00
Automático
Capítulos
  • Tocando a música
  • Dicas Iniciais / Equipamentos
  • Acordes da Introdução
  • Tocando a Introdução
  • Introdução - Parte 1 de 3
  • Introdução - Parte 2 de 3
  • Introdução - Parte 3 de 3
  • Acordes da Primeira Parte
  • Tocando a Primeira Parte
  • Primeira Parte - Parte 1 de 3
  • Primeira Parte - Parte 2 de 3
  • Primeira Parte - Parte 1 de 3
  • Primeira Parte - Parte 3 de 3
  • Tocando o Pré-Refrão
  • Pré-Refrão - Parte 5 de 5
  • Tocando o Refrão
  • Refrão
  • Ritmo do Refrão
  • Tocando a Segunda Parte
  • Ritmo da Segunda Parte
  • Tocando o Final
  • Final
  • Tocando Solo
  • Solo Introdução - Parte 1 de 3
  • Solo Introdução - Parte 2 de 3
  • Solo Introdução - Parte 3 de 3
  • Encerramento
  • Ficha Técnica
OK