Cifra Club

Black Friday Cifra Club

Metade da Estrada

Henrique e Juliano

Cifra: Principal (violão e guitarra)
tom: Bm
[Intro] Bm  D  A  E

[Tab - Solo Intro]

Parte 1 De 4

                                       
E|-12/14-12---------------------------------|
B|----------14/15-x-15h14-10----------------|
G|------------------------------------------|
D|------------------------------------------|
A|------------------------------------------|
E|------------------------------------------|

Parte 2 De 4

E|-12/14-12---------------------------------|
B|----------14/15-x-15h14-10----------------|
G|------------------------------------------|
D|------------------------------------------|
A|------------------------------------------|
E|------------------------------------------|

Parte 3 De 4

E|-10/12-10-9-------------------------------|
B|------------12-9p12-9---------------------|
G|------------------------------------------|
D|------------------------------------------|
A|------------------------------------------|
E|------------------------------------------|

Parte 4 De 4

E|-10/12-10-9-------------------------------|
B|------------12-9p12-9---------------------|
G|------------------------------------------|
D|------------------------------------------|
A|------------------------------------------|
E|------------------------------------------|

[Primeira Parte]
 
Bm             D
Olha aqui pra mim
                     A
Pra cá e pra lá no quarto

Nesse breu danado
             E
Eu não levantei e nem vou levantar

   Bm       D             A 
É desesperador essa situação
                             E
Cadê o bom senso do seu coração

Já dá pra parar

[Segunda Parte]

                 Bm
Vai me largar aqui? Ah tá
             D
E resolve sumir, então tá
      A
Você só não levou essa casa
            E
Porque não dava pra carregar

[Pré-Refrão]

                 Bm
Nunca pensou em mim, nunca
               D
Só me deixou o eco e mais nada
 A      
Me prometeu a vida toda
         E                   D   E
E me deixou na metade da estrada

[Refrão]

    Bm                        D
Mas esse sofrimento tem dia, hora e minuto contado
           A
Eu vou sofrer o resto desse dia
             E
Porque tudo serve de aprendizado

     Bm                   
Amanhã eu levanto do chão
  D                   
E encho essa casa de móveis
                 A 
Passo álcool em mim, na parede no teto
              E
Eu gasto uma caixa, mas me desinfeto

     Bm
Nem toda dor é constante
     D                           A    
Nem toda foto é pra sempre na estante
     Bm
Nem toda dor é constante
     D                           A    
Nem toda foto é pra sempre na estante

[Pré-Refrão]

                Bm
Nunca pensou em mim, nunca
               D
Só me deixou o eco e mais nada
 A      
Me prometeu a vida toda
         E                   D   E
E me deixou na metade da estrada

[Refrão]

    Bm                        D
Mas esse sofrimento tem dia, hora e minuto contado
           A
Eu vou sofrer o resto desse dia
             E
Porque tudo serve de aprendizado

     Bm                   
Amanhã eu levanto do chão
  D                   
E encho essa casa de móveis
                 A 
Passo álcool em mim, na parede no teto
              E
Eu gasto uma caixa, mas me desinfeto

     Bm
Nem toda dor é constante
     D                           A    
Nem toda foto é pra sempre na estante
     Bm
Nem toda dor é constante
     D                           A    
Nem toda foto é pra sempre na estante
00:00 / 00:00
Outros vídeos desta música
Repetir
Outros vídeos desta música
Composição de Diego Silveira / LARI FERREIRA
Colaboração e revisão:
29.492 exibições
    • ½ Tom
    • Am
    • Bbm
    • Bm
    • Cm
    • C#m
    • Dm
    • Ebm
    • Em
    • Fm
    • F#m
    • Gm
    • G#m
  • Adicionar à lista

    0 comentários

    Ver todos os comentários

    Entre para oCifra Club PRO

    Tenha acesso a benefícios exclusivos no App e no Site

    • Chega de anúncios

    • Prioridade de compra em lançamentos

    • Mais recursos no app do Afinador

    • Atendimento Prioritário

    • Descontos nos produtos Cifra Club

    • Ajude a produzir mais conteúdo

    00:00 / 00:00

    Cifra Club Pro

    Aproveite o Cifra Club com benefícios exclusivos e sem anúncios
    Cifra Club Pro
    Aproveite o Cifra Club com benefícios exclusivos e sem anúncios
    OK