Cifra Club

Rasteira

Henrique e Juliano

Cifra: Principal (violão e guitarra)
tom: Gm (forma dos acordes no tom de Em) Capotraste na 3ª casa
[Intro] C  D9/F#  Em7  D2  Em7
        C  D9/F#  Em7  D2

[tab - intro]

Parte 1 de 2
E|------------------------------------------|
B|------------------------------------------|
G|------------------------------------------|
D|------------------------------------------|
A|----5/7-7~--5\-2~-------------------------|
E|-3~---------------------------------------|

Parte 2 de 2
E|------------------------------------------|
B|-/8-8-8-7-7-7-5-5-5-5---------------------|
G|-/7-7-7-7-7-7-7-7-7----7\5/7--------------|
D|------------------------------------------|
A|-----------------------5\3/5--------------|
E|------------------------------------------|

Parte 1 de 2
E|------------------------------------------|
B|------------------------------------------|
G|------------------------------------------|
D|------------------------------------------|
A|----5/7-7~--5\-2~-------------------------|
E|-3~---------------------------------------|

Parte 2 de 2
E|------------------------------------------|
B|-/8-8-8-7-7-7-5-5-5-5---------------------|
G|-/7-7-7-7-7-7-7-7-7----7\5/7--------------|
D|------------------------------------------|
A|-----------------------5\3/5--------------|
E|------------------------------------------|

[primeira parte]

    C
Normal, quando tocam no seu nome
    Em
Eu mudo de assunto
                                 G
Respondo ignorante não! A gente não tá junto
  D2                             C
Evito de andar em lugares que andei com você

[segunda parte]

                  G
Mas é só desbloquear o meu celular
           D2
Que vem notícia
                Em7
A gente tá parecendo
                    C
Fim de namoro de artista

[pré-refrão]

D9/F#  Em7       
      Toda hora vem um chato me
    D2 
Enchendo de por que
                C
Por que que acabou
                             D2
Por que não volta? Por quê, por quê?

[refrão]

        C         G     
Eu não sei responder
            D2 
Eu só fico puto porque o povo acha

Que eu nasci grudado em você

      C        G
Eles só sabem ver
                 D2
As pinga que eu tomo e os tombo que

Eu levo ninguém quer saber

                     C    D9/F#  Em
Os tombo ninguém nunca vê
                   D2
E a rasteira quem deu foi você

                     C    D9/F#  Em
Os tombo ninguém nunca vê
                   D2
E a rasteira quem deu foi você

[Solo] C  D9/F#  Em7  D2  

[tab - solo]

Parte 1 de 2
E|------------------------------------------|
B|------------------------------------------|
G|------------------------------------------|
D|------------------------------------------|
A|----5/7-7~--5\-2~-------------------------|
E|-3~---------------------------------------|

Parte 2 de 2
E|------------------------------------------|
B|-/8-8-8-7-7-7-5-5-5-5---------------------|
G|-/7-7-7-7-7-7-7-7-7----7\5/7--------------|
D|------------------------------------------|
A|-----------------------5\3/5--------------|
E|------------------------------------------|

[segunda parte]

                  G
Mas é só desbloquear o meu celular
           D2
Que vem notícia
                Em7
A gente tá parecendo
                    C
Fim de namoro de artista

[pré-refrão]

D9/F#  Em7       
      Toda hora vem um chato me
    D2 
Enchendo de por que
                C
Por que que acabou
                             D2
Por que não volta? Por quê, por quê?

[refrão]

        C         G     
Eu não sei responder
            D2 
Eu só fico puto porque o povo acha

Que eu nasci grudado em você

      C        G
Eles só sabem ver
                 D2
As pinga que eu tomo e os tombo que

Eu levo ninguém quer saber

        C         G     
Eu não sei responder
            D2 
Eu só fico puto porque o povo acha

Que eu nasci grudado em você

      C        G
Eles só sabem ver
                 D2
As pinga que eu tomo e os tombo que

Eu levo ninguém quer saber

                     C    D9/F#  Em
Os tombo ninguém nunca vê
                   D2
E a rasteira quem deu foi você

                     C    D9/F#  Em
Os tombo ninguém nunca vê
                   D2
E a rasteira quem deu foi você

[Final] C  D9/F#  Em

[tab - final]

Parte 1 de 2
E|------------------------------------------|
B|------------------------------------------|
G|------------------------------------------|
D|------------------------------------------|
A|----5/7-7~--5\-2~-------------------------|
E|-3~---------------------------------------|
00:00 / 00:00
Outros vídeos desta música
Repetir
Outros vídeos desta música
Composição de Felipe Kef / Lari Ferreira / Christyan Ribeiro / Henrique Tavares / Nudoze
Colaboração e revisão:
  • Thiago Almeida
  • Raffael Uascar
  • Airtton Junior
23.072 exibições
    • ½ Tom
    • Am
    • Bbm
    • Bm
    • Cm
    • C#m
    • Dm
    • Ebm
    • Em
    • Fm
    • F#m
    • Gm
    • G#m
  • Adicionar à lista

    0 comentários

    Ver todos os comentários

    Entre para oCifra Club PRO

    Tenha acesso a benefícios exclusivos no App e no Site

    • Chega de anúncios

    • Prioridade de compra em lançamentos

    • Mais recursos no app do Afinador

    • Atendimento Prioritário

    • Descontos nos produtos Cifra Club

    • Ajude a produzir mais conteúdo

    00:00 / 00:00

    Cifra Club Pro

    Aproveite o Cifra Club com benefícios exclusivos e sem anúncios
    Cifra Club Pro
    Aproveite o Cifra Club com benefícios exclusivos e sem anúncios
    OK