Cifra Club

Sala de Espera

Henrique e Juliano

Cifra: Principal (violão e guitarra)
exibições 9.255
Tom: Eb (forma dos acordes no tom de D) Capotraste na 1ª casa
[Intro] Bm7  A4  G

E|----------------------------------------------------|
B|-----3----------------------------------------------|
G|-2/4---4-----2-------2------------------------------|
D|-----------4---4---0---4---0-2-0-2-2/4---0----------|
A|---------------------------------------------0h2----|
E|----------------------------------------------------|

[Primeira Parte]

 Bm7                   
Tudo ok, dez pras três 
A4                    G
E você nem foi pra cama
O esquisito é você ter perdido 
Esse sono há uma semana
 Bm7
Tô aqui sem dormir
 A4                   G
Resistindo àquele tempo
Que você me pediu quando disse
Que não tinha mais sentimento

[Pré-Refrão]

Bm7                  
  Na sua última foto 
     A4
Sua legenda dizia assim
    G
Eu só quero ser feliz                      
E se eu fosse comentar
   D9
Seria assim
                  A4        G
Que jeito cê vai ser feliz sem mim?

[Refrão]

        D9     
Parece pessoal
                A4
Mas pra mim não é normal
     G
Você atualiza essa sua vida
E me deixa pro final
        D9     
Parece pessoal
                A4
Mas pra mim não é normal
     G
Você atualiza essa sua vida
E me deixa pro final

               Bm7
Só te faço um pedido
                       A4
Deixa eu virar só um amigo
               G
Artigo de decoração
Eu to aqui na sala de espera 
            
Do seu coração

[Solo] D9  A4  G

E|-------0--0--------0--------------------------------|
B|-/7--7------3--3/5---3--3-2----------3-----3--------|
G|---------------------------------2h4---2h4----2h4---|
D|----------------------------------------------------|
A|----------------------------------------------------|
E|----------------------------------------------------|

E|-----------------5----------------------------------|
B|-------3---3-5/7---7~---5h7p5-5/7~------------------|
G|-2-2h4---4------------------------------------------|
D|----------------------------------------------------|
A|----------------------------------------------------|
E|----------------------------------------------------|

[Pré-Refrão]

Bm7                  
  Na sua última foto 
     A4
Sua legenda dizia assim
    G
Eu só quero ser feliz                      
E se eu fosse comentar
   D9
Seria assim
                  A4        G
Que jeito cê vai ser feliz sem mim?

[Refrão]

        D9     
Parece pessoal
                A4
Mas pra mim não é normal
     G
Você atualiza essa sua vida
E me deixa pro final
        D9     
Parece pessoal
                A4
Mas pra mim não é normal
     G
Você atualiza essa sua vida
E me deixa pro final

               Bm7
Só te faço um pedido
                       A4
Deixa eu virar só um amigo
               G
Artigo de decoração
Eu to aqui na sala de espera 
            
Do seu coração

[Solo Final] Bm7  A4  G
             Bm7  A4  G

E|----------------------------------------------------|
B|-----3----------------------------------------------|
G|-2/4---4-----2-------2------------------------------|
D|-----------4---4---0---4---0-2-0-2-2/4---0--2-------|
A|----------------------------------------------0h2---|
E|----------------------------------------------------|

E|----------------------------------------------------|
B|-----3----------------------------------------------|
G|-2/4---4-----2-------2------------------------------|
D|-----------4---4---0---4---0-2-0-2-2/4---0----------|
A|----------------------------------------------------|
E|----------------------------------------------------|

            D9  A4  G
Do seu coração
Acordes para:
    Composição: Edu Valim / Renan Valim Colaboração e revisão:
    • Getúlio Vasconcelos
    • Lucas Kappaun

    0 comentários

    mostrar mais comentários

    Conseguiu tocar?

    2 tocaram 1 ainda não

    Grave um vídeo tocando Sala de Espera e mande pra gente!

    00:00 / 00:00
    outros vídeos desta música
    repetir qualidade Automático
    Outros vídeos desta música
    00:00 / 00:00
    Automático
    OK