Cifra Club

Traumatizei

Henrique e Juliano

Cifra: Principal (violão e guitarra)
Selo Cifra Club: esta cifra foi revisada para atender aos critérios oficiais da nossa Equipe de Qualidade.
tom: B
[Intro] C#m  E  B

[Tab - Solo Intro]

Parte 1 de 4
E|------------------------------------------|
B|------------------------------------------|
G|-4/6-6-6-6--6-6-6-6-6-6/8--6\4------------|
D|------------------------------------------|
A|------------------------------------------|
E|------------------------------------------|
  
Parte 2 de 4
E|------------------------------------------|
B|----------------------4-2/4---------------|
G|-2/4-4-4-4--4-4-4-4-4---------------------|
D|------------------------------------------|
A|------------------------------------------|
E|------------------------------------------|

Parte 3 de 4
E|------------------------------------------|
B|-5/7-5-4h5p4---------5-5p4----------------|
G|--------------4--4-6-------6-6/8\4--------|
D|------------------------------------------|
A|------------------------------------------|
E|------------------------------------------|

Parte 4 de 4
E|------------------------------------------|
B|------------------------------------------|
G|---4-6-6~/--------------------------------|
D|-6----------------------------------------|
A|------------------------------------------|
E|------------------------------------------|

[Primeira Parte]

 C#m
Desde que a gente terminou
                E
Ela não namorou   mais
          B
Porque será né?
C#m 
    Lembro que eu prometi

Que não ia sumir
E
  Não ia te deixar
              B
E nunca ia fazer seu olho chorar

[Pré-Refrão]

 C#m                               E
Juntou um pouco de falha no meu caráter
                            B
Com a imaturidade da minha parte

É assim que uma insegura nasce

[Refrão]

        C#m
Se hoje ela não consegue confiar em ninguém
     E
Se ela vê coisa errada até onde não tem
   B
Se ela não consegue se entregar

A culpa é minha, a culpa é toda minha
    C#m
Se hoje ela é fria, eu que esfriei
   E
E pode me chamar de otário

Eu sou, eu sei
   B
Se ela tem o pé atrás com todo mundo
    F#7
Fui eu quem puxei
   C#m                       E
Pediu pra cuidar, eu não cuidei
                       B
Era pra amar, traumatizei
     C#m                         E
Ela pediu pra cuidar, eu não cuidei
                       B
Era pra amar, traumatizei

[Solo] C#m  E  B

[Pré-Refrão]

 C#m                               E
Juntou um pouco de falha no meu caráter
                            B
Com a imaturidade da minha parte

É assim que uma insegura nasce

[Refrão]

        C#m
Se hoje ela não consegue confiar em ninguém
     E
Se ela vê coisa errada até onde não tem
   B
Se ela não consegue se entregar

A culpa é minha, a culpa é toda minha
    C#m
Se hoje ela é fria, eu que esfriei
   E
E pode me chamar de otário

Eu sou, eu sei
   B
Se ela tem o pé atrás com todo mundo
    F#7
Fui eu quem puxei

   C#m                       E
Pediu pra cuidar, eu não cuidei
                       B
Era pra amar, traumatizei
     C#m                         E
Ela pediu pra cuidar, eu não cuidei
                                B
Era pra amar, fui lá e traumatizei
Outros vídeos desta música
    295.272 exibições
    • Simplificar cifra
      • ½ Tom
      • A
      • Bb
      • B
      • C
      • Db
      • D
      • Eb
      • E
      • F
      • F#
      • G
      • Ab
    • Adicionar à lista

    Afinação da cifra

    Afinador online

      0 comentários

      Ver todos os comentários

      Entre para o Cifra Club PRO

      Tenha acesso a benefícios exclusivos no App e no Site

      • Chega de anúncios

      • Badges exclusivas

      • Mais recursos no app do Afinador

      • Atendimento Prioritário

      • Aumente seu limite de lista

      • Ajude a produzir mais conteúdo

      Cifra Club Pro

      Aproveite o Cifra Club com benefícios exclusivos e sem anúncios
      Cifra Club Pro
      Aproveite o Cifra Club com benefícios exclusivos e sem anúncios
      Ops (: Contenido disponible sólo en portugués.
      OK